Cifras Web
Goldfinger

Ghouls Night Out

Goldfinger

12 acessos

                                GHOULS NIGHT OUT
         (From the 1997 Album VIOLENT WORLD - A TRIBUTE TO THE MISFITS)

Words by Glenn Danzig (The Misfits)

Tabbed by Big Will 

          A5                   G5                   D5                   E5
      5 7 7 x x x          3 5 5 x x x          x 5 7 7 x x          x 7 9 9 x x

          C5                   B5                 A5open                 C#5
      x 3 5 5 x x          x 2 4 4 x x          x 0 2 2 x x          x 4 6 6 x x

 Intro
  Q=230
  N.C.      D5
 4/4
  Gtr I

|---------|------------|----------------------------------|
|---------|------------|----------------------------------|
|---------|------------|----------------------------------|
|---------|------------|----------(Pickscrape)------------|
|---------|------------|----------------------------------|
|---------|------------|----------------------------------|

|
| Gtr II

|---------|------------|----------------------------------|
|---------|------------|----------------------------------|
|---------|-(7)--------|--7---7---7---7---7---7---7---7---|
|---------|-(7)--------|--7---7---7---7---7---7---7---7---|
|---------|-(5)--------|--5---5---5---5---5---5---5---5---|
|---------|------------|----------------------------------|



   Verse 1
    A5                                  G5                D5    E5
    Gtrs I, II

||------------------|-----------------|-----------------|--------------|
||o-----------------|-----------------|-----------------|--------------|
||------------------|-----------------|-----------------|-7--7--9--9---|
||--7-7-7-7-7-7-7-7-|-7-7-7-7-7-7-7-7-|-5-5-5-5-5-5-5-5-|-7--7--9--9---|
||o-7-7-7-7-7-7-7-7-|-7-7-7-7-7-7-7-7-|-5-5-5-5-5-5-5-5-|-5--5--7--7---|
||--5-5-5-5-5-5-5-5-|-5-5-5-5-5-5-5-5-|-3-3-3-3-3-3-3-3-|--------------|



  A5                                  G5                D5

|-----------------|-----------------|-----------------|------------------||

|-----------------|-----------------|-----------------|-----------------o||
|-----------------|-----------------|-----------------|-7-7-7-7-7-7-7-7--||
|-7-7-7-7-7-7-7-7-|-7-7-7-7-7-7-7-7-|-5-5-5-5-5-5-5-5-|-7-7-7-7-7-7-7-7--||
|-7-7-7-7-7-7-7-7-|-7-7-7-7-7-7-7-7-|-5-5-5-5-5-5-5-5-|-5-5-5-5-5-5-5-5-o||
|-5-5-5-5-5-5-5-5-|-5-5-5-5-5-5-5-5-|-3-3-3-3-3-3-3-3-|------------------||


 Chorus
  E5                                  D5

|-----------------|-----------------|-----------------|-----------------|
|-----------------|-----------------|-----------------|-----------------|
|-9-9-9-9-9-9-9-9-|-9-9-9-9-9-9-9-9-|-7-7-7-7-7-7-7-7-|-7-7-7-7-7-7-7-7-|
|-9-9-9-9-9-9-9-9-|-9-9-9-9-9-9-9-9-|-7-7-7-7-7-7-7-7-|-7-7-7-7-7-7-7-7-|
|-7-7-7-7-7-7-7-7-|-7-7-7-7-7-7-7-7-|-5-5-5-5-5-5-5-5-|-5-5-5-5-5-5-5-5-|
|-----------------|-----------------|-----------------|-----------------|



  E5                                  C5

|-----------------|-----------------|-----------------|-----------------|
|-----------------|-----------------|-----------------|-----------------|
|-9-9-9-9-9-9-9-9-|-9-9-9-9-9-9-9-9-|-5-5-5-5-5-5-5-5-|-5-5-5-5-5-5-5-5-|
|-9-9-9-9-9-9-9-9-|-9-9-9-9-9-9-9-9-|-5-5-5-5-5-5-5-5-|-5-5-5-5-5-5-5-5-|
|-7-7-7-7-7-7-7-7-|-7-7-7-7-7-7-7-7-|-3-3-3-3-3-3-3-3-|-3-3-3-3-3-3-3-3-|
|-----------------|-----------------|-----------------|-----------------|



  B5
  
PM------------------------------|
|-----------------|-----------------||


|-----------------|-----------------||


|-----------------|-----------------||

|-4-4-4-4-4-4-4-4-|-4-4-4-4-4-4-4-4-||
|-2-2-2-2-2-2-2-2-|-2-2-2-2-2-2-2-2-||

|-----------------|-----------------||



   Bridge
    Q=210 slower
    A5open                       C#5
    PM---|        PM-----|       PM---|        PM---|

||--------------|--------------|-------------|---------------|
||o-------------|--------------|-------------|---------------|
||---------2----|-----------2--|--------6----|--------6--6---|
||--2-2--2-2----|-2-2--2-2--2--|-6-6--6-6----|-6-6--6-6--6---|
||o-0-0--0-0----|-0-0--0-0--0--|-4-4--4-4----|-4-4--4-4--4---|
||--------------|--------------|-------------|---------------|




  D5                           E5
  PM---|        PM---|         PM---|

|-------------|--------------|-------------|----------||-----|
|-------------|--------------|-------------|---------o||-----|
|--------7----|--------7--7--|--------9----|----------||-----|
|-7-7--7-7----|-7-7--7-7--7--|-9-9--9-9----|----------||-----|
|-5-5--5-5----|-5-5--5-5--5--|-7-7--7-7----|---------o||-----|
|-------------|--------------|-------------|----------||-----|



   Verse 2
    Q=230 normal pace
    A5                G5                                  D5    E5

||------------------|-----------------|-----------------|--------------|
||o-----------------|-----------------|-----------------|--------------|
||------------------|-----------------|-----------------|-7--7--9--9---|
||--7-7-7-7-7-7-7-7-|-7-7-7-7-7-7-7-7-|-5-5-5-5-5-5-5-5-|-7--7--9--9---|
||o-7-7-7-7-7-7-7-7-|-7-7-7-7-7-7-7-7-|-5-5-5-5-5-5-5-5-|-5--5--7--7---|
||--5-5-5-5-5-5-5-5-|-5-5-5-5-5-5-5-5-|-3-3-3-3-3-3-3-3-|--------------|



  A5                                  G5                D5

|-----------------|-----------------|-----------------|------------------||

|-----------------|-----------------|-----------------|-----------------o||
|-----------------|-----------------|-----------------|-7-7-7-7-7-7-7-7--||
|-7-7-7-7-7-7-7-7-|-7-7-7-7-7-7-7-7-|-5-5-5-5-5-5-5-5-|-7-7-7-7-7-7-7-7--||
|-7-7-7-7-7-7-7-7-|-7-7-7-7-7-7-7-7-|-5-5-5-5-5-5-5-5-|-5-5-5-5-5-5-5-5-o||
|-5-5-5-5-5-5-5-5-|-5-5-5-5-5-5-5-5-|-3-3-3-3-3-3-3-3-|------------------||


   Chorus, Out-Chorus
    E5                                  D5

||------------------|-----------------|-----------------|------------------|
||o-----------------|-----------------|-----------------|------------------|
||--9-9-9-9-9-9-9-9-|-9-9-9-9-9-9-9-9-|-7-7-7-7-7-7-7-7-|-7-7-7-7-7-7-7-7--|
||--9-9-9-9-9-9-9-9-|-9-9-9-9-9-9-9-9-|-7-7-7-7-7-7-7-7-|-7-7-7-7-7-7-7-7--|
||o-7-7-7-7-7-7-7-7-|-7-7-7-7-7-7-7-7-|-5-5-5-5-5-5-5-5-|-5-5-5-5-5-5-5-5--|
||------------------|-----------------|-----------------|------------------|



  E5                                  G5

|-----------------|-----------------|-----------------|-----------------|
|-----------------|-----------------|-----------------|-----------------|
|-9-9-9-9-9-9-9-9-|-9-9-9-9-9-9-9-9-|-5-5-5-5-5-5-5-5-|-5-5-5-5-5-5-5-5-|
|-9-9-9-9-9-9-9-9-|-9-9-9-9-9-9-9-9-|-5-5-5-5-5-5-5-5-|-5-5-5-5-5-5-5-5-|
|-7-7-7-7-7-7-7-7-|-7-7-7-7-7-7-7-7-|-3-3-3-3-3-3-3-3-|-3-3-3-3-3-3-3-3-|
|-----------------|-----------------|-----------------|-----------------|



  1.
  B5
  
PM------------------------------|
|-----------------|------------------||

|-----------------|-----------------o||

|-----------------|------------------||

|-4-4-4-4-4-4-4-4-|-4-4-4-4-4-4-4-4--||
|-2-2-2-2-2-2-2-2-|-2-2-2-2-2-2-2-2-o||

|-----------------|------------------||



 Outro
  2.
  B5
             PM-----|

|----------|--------------|--------*|
|----------|--------------|--------*|
|-4--------|-----------4--|-(4)----*|
|-4--------|-4-4--4-4--4--|-(4)----*|
|-2--------|-2-2--2-2--2--|-(2)----*|
|----------|--------------|--------*|



And thats it. My powertab for this one is still getting through the powertab archives. 
they changed the chorus and the outro. But its a cover so naturally things are gonna change.

Big Shout out to Andrew and Tyson

***************************************************************************************
* Generated using Power Tab Editor by Brad Larsen - http://* *
***************************************************************************************

TOP cifras de Goldfinger

  1. Mable
  2. Smp
  3. Wasted
  4. Miles Away
  5. Dad
  6. Meable
  7. Pictures
  8. Answers Intro
  9. Ghouls Night Out
  10. Free Me

Pela Web