Cifras Web
João Marcos e Matheus

Não É Normal

João Marcos e Matheus

5 acessos

Intro: C  G  Am  F

E|-----3--1-0-------------1--0------------1-0-----|
B|-1-3--------3---1-3-1-3------3-1-0----------3-1-|
G|-----------------------------------2------------|
D|------------------------------------------------|
A|------------------------------------------------|
E|------------------------------------------------|


Parte 1:
C                 G
A noite me traz o silêncio
Am              F
E me apavora a solidão
C                   G
De tantas coisas que eu invento
Am                   F
Nada me traz de volta essa paixão

Parte 2:
G            F
Amigos vão sair me chamam pra dançar
G                  F                      C
Curtir um pouco a noite, quem sabe encontrar,
    G                    Am        F                    C
alguém pra me trazer de volta, um novo brilho em meu olhar.

Parte 3:
G              F
E no fim da balada tudo fica igual
G                 F                 C
Não encontro ninguém isso não é normal
G                  Am
Sintoma do meu coração
F                    C   G
Ainda quer te encontrar

Refrão:
        C          G
Vou deitar pra durmir
      F                   C
Mas suas lembranças me consomem
       Dm                F
Me pergunto onde deve estar
                   G
Por que você se esconde
       C       G
Vou vagar por ai
      F              C
Madrugada fora e o desejo
       Dm              F
Me propondo a te entregar
       G         C
A vida por um beijo.

Solo: C  Am  F  G

E|-5-6-5-6-5-6-5-6-3-5-3-5-3-5-3-5-1-3-1-3-1-3-3/5-3-|
B|---------------------------------------------------|
G|---------------------------------------------------|
D|---------------------------------------------------|
A|---------------------------------------------------|
E|---------------------------------------------------|


(Parte 3)

Refrão 2x:
       Dm              F
Me propondo a te entregaaaar
       G         C
A vida por um beijo.

Top cifras de João Marcos e Matheus

  1. Deu Certo
  2. Pode Chorar
  3. Menina Fala Sério
  4. Quero ter Você
  5. Não É Normal

Pela Web