Cifras Web
Juninho Cassimiro

Minha Inspiração

Juninho Cassimiro

89 acessos

Introd: E F#m11

(Riff 1)

             E                  F#m11
E|---------------------------------------------------------|
B|-------5-5/7-5-7/9~--------5-5/7-5-----------------------|
G|---4h6---------------4-4h6---------4h6-------------------|
D|---------------------------------------------------------|
A|---------------------------------------------------------|
E|---------------------------------------------------------|


(Riff 2)

             E                      F#m11
E|---------------------------------------------------------|
B|-------5-5/7-5-7/9~-7-7p5-------5-5/7-5-------5/7\5------|
G|---4h6--------------------4-4h6---------4h6--------------|
D|---------------------------------------------------------|
A|---------------------------------------------------------|
E|---------------------------------------------------------|


          E                     F#m11
Tudo que hoje eu sei é obra do Criador
        A9                     E
Um dom do céu foi Deus que mim deu
          E                     F#m11
Se hoje posso cantar foi Deus quem permitiu
        A9                     E
Ele soprou em mim um sopro criador

  A9              G#m5+    E6/A
A Ele sempre um canto de Amor
  A9              G#m5+       A7+
A Ele sempre minha voz meu louvor,
       E/G#
meu louvor

(Riff 3)

           F#m11                 E
E|--------------5h7----------------------------------------|
B|-------3/5-5------5----5h7-7/9-9--5h7--5-7/9-9---7\5-----|
G|---------------------------------------------------------|
D|---------------------------------------------------------|
A|---------------------------------------------------------|
E|---------------------------------------------------------|



           F#m11                       E
E|----------5h7-7------5h7-7-------------------------------|
B|----------------5h7---------7h9-9--7\5-5-----------------|
G|---------------------------------------------------------|
D|---------------------------------------------------------|
A|---------------------------------------------------------|
E|---------------------------------------------------------|


     E          (Riff 4)
Meu Deus da Cruz
        F#m11
Compôs a arte maior
         A9
A mais bela história de Amor
        E
Meu Deus da Cruz
     E
Minha inspiração
          F#m11
Fôlego de minha canção
          A9
Sussurro ao Seu ouvido
            E
Meu Deus e meu Senhor

  A9              G#m5+    E6/A
A Ele sempre um canto de Amor
  A9              G#m5+       A7+
A Ele sempre minha voz meu louvor
  A9              G#m5+    E6/A   (Riff 5)
A Ele sempre um canto de Amor
  A9              G#m5+       A7+
A Ele sempre minha voz meu louvor,
       E/G# A9 E/G# A9 E/G#
meu louvor

(Riff 4)


E|---------------------------------------------------------|
B|-------------5h7-7-7/9-9\5-------------------------------|
G|---------------------------------------------------------|
D|---------------------------------------------------------|
A|---------------------------------------------------------|
E|---------------------------------------------------------|


(Riff 5)


E|---------------------------------------------------------|
B|-------------7-7p5-------5-5/7\5-------------------------|
G|---------------------4h6-----------4-4h6-----------------|
D|---------------------------------------------------------|
A|---------------------------------------------------------|
E|---------------------------------------------------------|

TOP cifras de Juninho Cassimiro

  1. Quando Eu Te Encontrar
  2. Convívio Dos Eleitos
  3. Te Amar
  4. Teus planos
  5. Seja Um
  6. O Que Me Rouba de Ti
  7. Belo Dom
  8. A Nossa Fé
  9. Em Busca do Amado
  10. Minha Inspiração

Pela Web