Cifras Web
La Ley

Intenta Amar

La Ley

8 acessos

      E A D G B e
Amaj7 X 0 2 1 2 0
Fmaj7 X 3 3 2 1 0
C     0 3 2 0 1 0
G     3 2 0 0 0 1
Dm    X X 0 2 1 3
Am    X X 2 2 1 0
A     X 0 3 3 3 0
E     0 2 2 1 0 0

Amaj7 x1

e------------------------------------------------------|
B------3s5bbb--5-5-6-6s8s5bbb---10-8s5-----------------|
G---------------------------------------7-7s9bbb-7h9s7-|
D------------------------------------------------------|
A------------------------------------------------------|
E------------------------------------------------------|


Amaj7	      Fmaj7
Las penas se van

Amaj7	   Fmaj7
Y vuelven estar

Amaj7		Fmaj7
Anclada anse un mar

Amaj7	  Fmaj7
Que suele cayar

C                 G
Tus lagrimas, tu devotion

    Dm
Un pez que vence

Am
Todo su temor

C	      G
Para vivir, para existir

	Dm	        C   G
Y descubrirse cada dia mas

Amaj7 x1

e------------------------------------------------------|
B------3s5bbb--5-5-6-6s8s5bbb--------------------------|
G------------------------------------------------------|
D------------------------------------------------------|
A------------------------------------------------------|
E------------------------------------------------------|



Amaj7	   Fmaj7
Intentar amar


Amaj7	        Fmaj7
Un trozo de esa mar

Amaj7	 Fmaj7
Inunda mi paz

    C		      G	     	   Dm		       Am
La immensidad de esta verdad no impedida que pueda nadar

C		  G
Dentro de ti, para sentir

	Dm	       C G A
Y descubrirte cada dia mas

E     G
Pa pa pa pa

A	   	 E
Necesito tu calor

E     G
Pa pa pa pa

A
Necesito tu amor

Amaj7 x1

e------------------------------------------------------|
B------3s5bbb--5-5-6-6s8s5bbb---10-8s5-----------------|
G---------------------------------------7-7s9bbb-------|
D------------------------------------------------------|
A------------------------------------------------------|
E------------------------------------------------------|


Amaj7	     Fmaj7
El tiempo se va

Amaj7	     Fmaj7
Muy lejos atras

C	      G
Y ahora estoy y tambien soy

    Dm 			 Am
El hombre que busca una razon

C	    G
Para vivir, para decir

    Dm			    C G A
Que hoy de quiero cada dia mas

E     G
Pa pa pa pa

A		E
Necesito tu calor

E     G
Pa pa pa pa

A	       E
Necesito tu amor



E
Y ahora que no esto fallando

G
Siento que me estas matando

A		E
Necesito tu calor

E
Y ahora que te estoy amando

G
Nuestro amor se esta fiyando

A		E
Necesito tu calor

E
Y ahora que no esto fallando

G
Siento que me estas matando

A		E
Necesito tu calor


This is my first tab. Sorry if some of the words are spelled wrong. Hope I did a good 
though. If you have any comments email me at *. Have fun!!!

TOP cifras de La Ley

  1. Bon Voyage
  2. The Corridor
  3. Libertad
  4. La luna
  5. El Duelo (unplugged)
  6. El Duelo
  7. Eternidad
  8. Intenta Amar
  9. Roces
  10. Sabes Quien Eres

Pela Web