Cifras Web
Los Tres

Olor A Gas

Los Tres

6 acessos

hi its me again
olor a gas
sydvincent


E   A
E  A  Am

 Intro
   E                  A              Am

e -------3/4------7----------4/2--------------|
B -----------------------------------4/5------|
G --------------------------------------------|
D --------------------------------------------|X2
A --------------------------------------------|
E --------------------------------------------|


E        A
En la cocina hay
E        A  Am
olor a gas
E         A
Esta todo apagado
E          A  Am
hay luna en paz

  E                  A              Am

e -------3/4------7----------4/2--------------|
B -----------------------------------4/5------|
G --------------------------------------------|
D --------------------------------------------|  X2
A --------------------------------------------|
E --------------------------------------------|



E         A
No tengo hambre
E           A  Am
voy a desfilar
E              A
planchada y de fiesta
E            A  Am
hay olor a gas

Puente
this is the second guitar
  Olor              a una carne         mantel y sal
      A                    C#m                     F#

e ----9---------------------16---------------------2-----|
B ----7---------------------14---------------------2-----|
G -------------------------------------------------------|
D -------------------------------------------------------|x2
A -------------------------------------------------------|
E -------------------------------------------------------|



   en semana             santa               sol celestial
      A                    C#m                     F#

e ----9---------------------16---------------------2----|
B ----7---------------------14---------------------2----|
G ------------------------------------------------------|
D ------------------------------------------------------|x2
A ------------------------------------------------------|
E ------------------------------------------------------|


A         C#m
Olor a una carne
F#
mantel y sal
A     C#m
en semana santa
F#
sol celestial

C#m
sin sábanas
                F#
sin un colchon
C#m
duerme tranquilo
                F#
como un liron

   Seco             el                 corazon
   A                  F#                  A

e --17/16--------------13/11---------------9-------|
B -------------------------------------------------|
G -------------------------------------------------|
D -------------------------------------------------|
A -------------------------------------------------|
E -------------------------------------------------|


solo
                E            A          E            A        Am

e -----3/4------7----------9/11---12---9----------------------------------|
B -------------------------------------------7h9----7----7/9--------------|
G ------------------------------------------------------------------------|
D ------------------------------------------------------------------------|
A ------------------------------------------------------------------------|
E ------------------------------------------------------------------------|


                E            A          E            A        Am

e -----3/4------7----------9/11---12---9----------------------------------|
B -------------------------------------------7h9-----7-----5--5-----------|
G ------------------------------------------------------------------------|
D ------------------------------------------------------------------------|
A ------------------------------------------------------------------------|
E ------------------------------------------------------------------------|



               A            C#m                 F#

e ------------------9---11h12-----9---------------------------------------|
B -----9/7------5------------------------------7h9----7--7h9--------------|
G ------------------------------------------------------------------------|
D ------------------------------------------------------------------------|
A ------------------------------------------------------------------------|
E ------------------------------------------------------------------------|


                A            C#m                 F#

e -------------------------9---11h12-----9---------------------------------|
B ------9/7-----5--------------------------------7h9----7-----5--5---------|
G -------------------------------------------------------------------------|
D -------------------------------------------------------------------------|
A -------------------------------------------------------------------------|
E -------------------------------------------------------------------------|


       A             F#         A          A           F#          A

e ----17/16---------13/11--------9------17/16--------13/11--------9--------|
B -------------------------------------------------------------------------|
G -------------------------------------------------------------------------|
D -------------------------------------------------------------------------|
A -------------------------------------------------------------------------|
E -------------------------------------------------------------------------|


E         A
En la coina hay
E          A  Am
olor a gas
   E          A
ya no cuento ovejas
E              A  Am
hoy duermo en paz
 E           A
busco mi camisa atientas
E            A  Am
voy a desfilar
     E           A
Planchada y de fiesta
E             A  Am
hay olor a gas

A         C#m
Olor a una carne
F#
mantel y sal
A     C#m
en semana santa
F#
sol celestial

C#m
sin sábanas
                F#
sin un colchon
C#m
duerme tranquilo
                F#
como un liron


   Seco             el                 corazon
   A                  F#                  A

e --17/16--------------13/11---------------9-------|
B -------------------------------------------------|
G -------------------------------------------------|
D -------------------------------------------------|
A -------------------------------------------------|
E -------------------------------------------------|


E     A
E        A  Am
repeat E till the end

Olor a gas

Olor a gas

Olor a gas

Olor a gas

les seguiria cantando pero son como las 4:30 y no he dormio ni una wea
buenas noches se despide
sydvincent
bye

TOP cifras de Los Tres

  1. Un Amor Violento
  2. No Sabes Que Desperdicio Tengo En El Alma
  3. Quien Es La Que Viene Alli Intro
  4. El Aval
  5. Olor A Gas
  6. Bolsa De Mareo
  7. Dejate Caer
  8. He Barrido El Sol
  9. Quien Es La Que Viene Alli

Pela Web