Cifras Web
Madame Machado

Menininha

Madame Machado

6 acessos

Solo da Introdução


E|-----------------------------------------------------
B|-----------------------------------------------------
G|------9-9--7-7---------------------------------------
D|-7-7-------------10-10-9-9---------------6-6-7-7-----
A|--------------------------------7-7-10-10------------
E|-----------------------------------------------------



(Am C G-G#-Am)
E|-----------------------------------------------------------
B|-----------------------------------------------------------
G|-----9-7-------------------------------9-7-------------7---
D|-7-7-------10-9-9--------------6-6-7-7-----10-9-9-10----7--
A|-------------------7-7-10-10-------------------------------
E|-----------------------------------------------------------


Am C
Um sapato na varanda
G
A revista no banheiro
E-
A menina no chuveiro
G-G#-Am
E a mesa de jantar
A C
O disquinho na vitrola
G
Telefone na bancada
E-
A viola no cantinho
G-G#-Am
Pedindo pra tocar

(Am F C G)
Vestidinho no cabide
E o espelho na parede
Refletindo o sorriso
Que ela vai me dar
O perfume vem primeiro
Depois o corpo inteiro
Invadindo a sala
G-G#-Am
Sem pedir pra entrar

(Am F C G)
O dia vai nascer
Pra nao me deixar esquecer
Cores e flores
Sorrindo nesse olhar
O filme vai voltar
Pra nao me deixar esquecer
O amor que eu tenho
Por você...

TOP cifras de Madame Machado

  1. Baixo Maravilha
  2. Pluguenplei
  3. Tá Ruim Mas Eu Quero
  4. Beijo de Cinema
  5. Menininha
  6. Faz Not
  7. Simples Assim

Pela Web