Cifras Web
Nightwish

Bare Grace Misery

Nightwish

15 acessos

Intro / Refrão:
E|----------------------------------------------------------------------------------------------------
B|----------------------------------------------------------------------------------------------------
G|-2--2-2-2-2----------------------2-2-2-2-2-------------------2-----2-----2-------------------------
D|-2--2 2-2-2-------3-2-3-5-3-2-3--2-2-2-2-2--7----------------3-----2-----3---------------------7-----
A|-0--0-0-0-0----1-----------------0-0-0-0-0--7----------------3-----0-----3---------------------7-----
E|---------------1----------------------------4-/----------14/-1-----------1/----x--3-3-3-3-3-3--5------
      2x                                                                            x x x x x x


E|----------------------------------------------------------------------
B|----------------------------------------------------------------------
G|------7--7-5----------------------------------------------------------
D|-7--7-7--7-5-7--7-7--7-7--2---3---7---3---5---------------------------
A|-7--7-5--5-3-7--7-7--7-7--2---3---7---3---5--5-5--5-5--5-5--5-5--5-5--
E|-5--5--------5--5-5--5-5--0---1---5---1---3--3-3--3-3--3-3--3-3--3-3--

      x           x                            x x  x x  x x  x x  x x

depois da 1ª frase:

E|----------------------------------------------------------------------
B|----------------------------------------------------------------------
G|----5-----------7-----------------------------------------------------
D|-7--5--5--7--2--7-----------------------------------------------------
A|-7--3--5--7--2--5-----------------------------------------------------
E|-5-----3--5--0--------------------------------------------------------


depois do refrão:

E|----------------------------------------------------------------------
B|----------------------------------------------------------------------
G|----------------------------------------------------------------------
D|-10---10---9---9---7---7---10-9-7---10---10---9---9---7---7---5-7-9-5-
A|----0----0---0---0---0---0--------7----0----0---0---0---0---0---------
E|----------------------------------------------------------------------

      x    x   x   x   x   x             x    x   x   x   x   x

E|----------------------------------------------------------------------
B|----------------------------------------------------------------------
G|----------------------------------------------------------------------
D|-10---10---9---9---7---7---10-9-7---10---10---9---9---5---5-7-9-7-9-10
A|----0----0---0---0---0---0--------7----0----0---0---0---8-------------
E|----------------------------------------------------------------------

      x    x   x   x   x   x             x    x   x   x

E|----------------------------------------------------------------------
B|----------------------------------------------------------------------
G|----------------------------------------------------------------------
D|-10---10---9---9---7---7---10-9-7---10---10---9---9---7---7---5-7-9-5-
A|----0----0---0---0---0---0--------7----0----0---0---0---0---0---------
E|----------------------------------------------------------------------

      x    x   x   x   x   x             x    x   x   x   x   x

E|----------------------------------------------------------------------
B|----------------------------------------------------------------------
G|----------------------------------------------------------------------
D|-10---10---9---9---7---7---10-9-7---10---10---9---9---5---5-7-9-7-9-10
A|----0----0---0---0---0---0--------7----0----0---0---0---8-------------
E|----------------------------------------------------------------------

      x    x   x   x   x   x             x    x   x   x


E|----------------------------------------------------------------------
B|----------------------------------------------------------------------
G|-7--5-----------------------------------------------------------------
D|-7--5------------------2-2-2-2-2-2-2-2-7-7-7-7-7-7-7-7-7-7-7-7-7-7-7-7
A|-5--3--3-3-3-3-3-3-3-3-0-0-0-0-0-0-0-0-5-5-5-5-5-5-5-5-5-5-5-5-5-5-5-5
E|-------1-1-1-1-1-1-1-1------------------------------------------------

         x x x x x x x x x x x x x x x x x x x x x x x x x x x x x x x x


E|----------------------------------------------------------------------
B|----------------------------------------------------------------------
G|----------------------------------------------------------------------
D|-10---10---9---9---7---7---10-9-7---10---10---9---9---7---7---5-7-9-5-
A|----0----0---0---0---0---0--------7----0----0---0---0---0---0---------
E|----------------------------------------------------------------------

      x    x   x   x   x   x             x    x   x   x   x   x


E|----------------------------------------------------------------------
B|----------------------------------------------------------------------
G|----------------------------------------------------------------------
D|-10---10---9---9---7---7---10-9-7---10---10---9---9---5---5-7-9-7-9-10
A|----0----0---0---0---0---0--------7----0----0---0---0---8-------------
E|----------------------------------------------------------------------

      x    x   x   x   x   x             x    x   x   x


E|------------------------------|---------------------------------------
B|------------------------------|---------------------------------------
G|------------------------------|---------------------------------------
D|---2----2----2---2------------|---2----2----2-------------------------
A|-2-2--2-2--2-2-2-2------------|-2-2--2-2--2-2-------------------------
E|-0-0--0-0--0-0-0-0------------|-0-0--0-0--0-0-------------------------

   x    x    x   x                x    x    x

TOP cifras de Nightwish

  1. Rest Calm
  2. Islander
  3. Eva
  4. Storytime
  5. Dead To the World
  6. Romanticide Intro
  7. Siren
  8. Wish I Had An Angel
  9. Romanticide
  10. The Islander

Pela Web