Cifras Web
Planet Hemp

Adoled (The Ocean)

Planet Hemp

8 acessos

esse e o rif que dura durante toda a musica

|--------------------------------------------------|
|--------------------------------------------------|
|--------------------------------------------------|
|--5h7-7-5-----------------5--------7--------------|
|-----------7---------5--7-----5--7------5-4-5---7-|
|--------------8/3---------------------------------|

                                                      

|--------------------------------------------------|
|--------------------------------------------------|
|--------------------------------------------------|
|--5h7-7-5-----------------5--------7--------------|
|-----------7---------5--7-----5--7------5-4-5---7-|
|--------------8/3---------------------------------|


(Refrão)

|--------------------------------------------------|
|--------------------------------------------------|
|--------------------------------------------------|
|-7-7-7-7---5-5-5-5-----------5-5-5-5--------------|
|-5-5-5-5---3-3-3-3---7-5-7---3-3-3-3--------------|
|---------------------5-3-5------------------------|


(Riff 2) (D C A G A D)
Pensei, gritei, não calei
Vi você tentando dixavar seu papo cretino, mas Eu escutei!
Dizendo que a violência cresceu de um tempo pra cá
que a solução era suvir no morro e esculachar
Aí, nem vem com situações operações humilhando
Invadindo e destruindo o lares dos cidadãos
que não pediram para estar ali querem apenas um pouco de paz
depois de ralar de sol-à-sol...

(Riff 1)
Diz! B. Negão, meu irmão, agora eu vou falar;
Eu subo o morro e só vejo criança gritar

Não pode, cultuar é o que eles tem na mão
Poder, eles escolhem qual é a informação
Se morrem sei spor dia é isso que eu quero falar
Falsa democracia eu não vou deixar
Olho pra trás e já entro em desespero
Eu já vi isso, manipulação, eu sinto o cheiro

(Introdução) (Riff 2)

Intriga, intriga, yeah vocês tão querendo é briga

(Riff 1)
Intriga, intriga,  vocês tão querendo é briga
A gente não engole tudo que mastiga
Olhe pra trás, veja quem fez e quem faz 
Sessenta e quatro já passou, eu não agüento mais
Querem me impedir de falar.
calar minha boca a força
Não meu irmão, não vou ficar marcando a toca
Enquanto não resolverem eu continuo a reclamar
Eu já falei, vou repetir: legalize já

(Riff 2)
-No sapatinho...

A
Vocalização: Lá, lá, la...

Você vem de blá,bla, bla pra cima de muá
Será que você não vê que "brinca" com a vida, não dá
Você vem de blá,bla, bla pra cima de muá
Será que você não vê que "brinca" com a vida, não dá

(Riff 1)

Você vê então vou te mostrar
Enquanto você brinca gente morre na favela
Tric-trac toque de recolher
Porque senão bala perdida pode encontrar você
Quer me calar mas não vai conseguir
Se cê não sabe é por isso que eu "tô" aqui
Na minha opinião legalizar é a  solução
Então, meu irmão, se liga na missão

(Riff 2)

(Introdução)

TOP cifras de Planet Hemp

  1. Mantenha O Respeito
  2. Contexto
  3. Legalize Já
  4. Dig, Dig, Dig ( Hempa )
  5. Nega Do Cabelo Duro
  6. A Culpa É De Quem ?
  7. Fazendo A Cabeça
  8. Não Compre Plante
  9. Queimando Tudo
  10. Hemp Family

Pela Web