Cifras Web
Planet Hemp

Não Compre Plante

Planet Hemp

14 acessos

G|-------------------------------------------------------------------|\
D|-----------------------5-------------------------------------------| \18x
A|-5h7---7---7-7---7-7-----7---5h7---7---7-7---7-7-------------------| /
E|---------------------------------------------------0-5---0-3---0---|/

G|-------|\
D|-------| \8x
A|-5h7---| /
E|-------|/

G|-------------------------------------------------------------------|\
D|-----------------------5-------------------------------------------| \6x
A|-5h7---7---7-7---7-7-----7---5h7---7---7-7---7-7-------------------| /
E|---------------------------------------------------0-5---0-3---0---|/

G|-------|\
D|-------| \4x
A|-5h7---| /
E|-------|/

G|-------------------------------------------------------------------|\
D|-----------------------5-------------------------------------------| \4x
A|-5h7---7---7-7---7-7-----7---5h7---7---7-7---7-7-------------------| /
E|---------------------------------------------------0-5---0-3---0---|/

G|-----------------|\
D|-----------------| \4x
A|-7---5-----------| /
E|---------5---7---|/

G|-------------------------------------------------------------------|\
D|-----------------------5-------------------------------------------| \13x
A|-5h7---7---7-7---7-7-----7---5h7---7---7-7---7-7-------------------| /
E|---------------------------------------------------0-5---0-3---0---|/

G|-----------------|\
D|-----------------| \4x
A|-7---5-----------| /
E|---------5---7---|/

G|-------|\
D|-------| \8x
A|-5h7---| /
E|-------|/

G|-------------------------------------------------------------------|\
D|-----------------------5-------------------------------------------| \4x
A|-5h7---7---7-7---7-7-----7---5h7---7---7-7---7-7-------------------| /
E|---------------------------------------------------0-5---0-3---0---|/

G|-----|
D|-----|
A|-7---|
E|-----|

TOP cifras de Planet Hemp

  1. Mantenha O Respeito
  2. Contexto
  3. Legalize Já
  4. Dig, Dig, Dig ( Hempa )
  5. A Culpa É De Quem ?
  6. Nega Do Cabelo Duro
  7. Fazendo A Cabeça
  8. Não Compre Plante
  9. Queimando Tudo
  10. Stab

Pela Web