Cifras Web
Steven Curtis Chapman

Hearts Cry

Steven Curtis Chapman

7 acessos

****************************************
Album: The Great Adventure
Tabbed by: Brad Edwards (*)
****************************************


Fingering Positions:

         G                       C 7/6                  Cm 7/6                 Bm
  |---|---|-4-|---|        |---|---|-4-|---|      |---|---|-4-|---|      |---|-1-|---|---|
 0|(1)|---|---|---|       0|---|---|---|---|     0|---|---|---|---|      |---|-1-|-2-|---|
 0|---|(2)|---|---|       0|---|(2)|---|---|      |---|-2-|---|---|      |---|-1-|---|-4-|
 0|---|---|---|---|        |---|-1-|---|---|      |-1-|---|---|---|      |---|-1-|---|-3-|
  |---|---|---|---|        |---|---|-3-|---|      |---|---|-3-|---|      |---|-1-|---|---|
  |---|---|-3-|---|        |---|---|---|---|      |---|---|---|---|      |---|---|---|---|


        Bm/G#                     Am2                   C2no3                   F/A
  |---|-1-|---|---|        |---|---|---|---|      |---|---|-4-|---|      |---|---|---|---|
  |---|-1-|-2-|---|        |-1-|---|---|---|      |---|---|-3-|---|      |-1-|---|---|---|
  |---|-1-|---|-4-|        |---|---|---|-4-|     0|---|---|---|---|      |---|-2-|---|---|
  |---|-1-|---|---|        |---|-2-|---|---|     0|---|---|---|---|      |---|---|-3-|---|
  |---|-1-|---|---|       0|---|---|---|---|      |---|---|-2-|---|     0|---|---|---|---|
  |---|---|---|-3-|        |---|---|---|---|      |---|---|---|---|      |---|---|---|---|


      6  Bb                    5  F/A(2)               4  Ab                 3  Eb/G
  |-1-|---|---|---|        |-1-|---|---|-4-|      |-1-|---|---|---|      |-1-|---|---|-4-|
  |-1-|---|---|---|        |-1-|-2-|---|---|      |-1-|---|---|---|      |-1-|-2-|---|---|
  |-1-|-2-|---|---|        |-1-|---|---|---|      |-1-|-2-|---|---|      |-1-|---|---|---|
  |-1-|---|---|---|        |-1-|---|---|---|      |-1-|---|---|---|      |-1-|---|---|---|
  |-1-|---|---|---|        |-1-|---|---|---|      |-1-|---|---|---|      |-1-|---|---|---|
  |-1-|---|---|---|        |-1-|---|---|---|      |-1-|---|---|---|      |-1-|---|---|---|


         F#                      Bb/F                  3  Eb7                3  Cm7
  |---|-1-|---|---|        |-1-|---|---|---|      |-1-|---|---|---|      |-1-|---|---|---|
  |---|-1-|---|---|        |-1-|---|-4-|---|      |-1-|---|---|---|      |-1-|-2-|---|---|
  |---|-1-|-2-|---|        |-1-|---|-3-|---|      |-1-|---|---|---|      |-1-|---|---|---|
  |---|-1-|---|---|        |-1-|---|---|---|      |-1-|---|-3-|---|      |-1-|---|-3-|---|
  |---|-1-|---|---|        |-1-|---|---|---|      |-1-|---|---|-4-|      |-1-|---|---|---|
  |---|-1-|---|---|        |---|---|---|---|      |---|---|---|---|      |-1-|---|---|---|

       Ending                                  5       7
  |---|---|---|---|        |---|---|---|---|---|---|---|---|
  |---|---|(3)|---|        |---|---|---|---|---|---|-4-|---|
  |---|(1)|---|---|        |---|---|---|---|-3-|---|-4-|---|
  |---|---|---|---|        |---|---|---|---|---|---|-4-|---|
  |---|---|---|(3)|        |---|---|---|---|---|---|---|---|
  |---|---|---|---|        |---|---|---|---|---|---|---|---|
  
|---|---|-2-|---|        |---|---|-1-|---|---|---|---|---|


Note: I'm not very good at naming chords so they may not all be right but this is the fingering
that I use.  If something doesn't sound right please let me know because I was sorta in 
hurry
when I was tabbing this and I might have (probably did) made a mistake.  Also please 
any
corrections to the above email address.  I also noted where he does the Bridge that it's not
how he does it but it sounds okay.  I play farther down (or is it up, anyway closer to 
body)
on the neck than he does, but if anyone can figure out what he's playing please let me 
 I
know this because I saw him on the Live Adventure Video playing this song, but I can't 
which
chords he's using.  Anyway enjoy it and God bless.

Intro

    G

E----------------------------------------------------------|
B-------------1-0--------------------------1-0-------------|
G-----0-0h2-0-2-0-0-0h2p0----------0-0h2-0-2-0-0-0h2p0-----|
D----0--------------------2p0-----0--------------------2p0-|
A----------------------------------------------------------|
E---3----------------------------3-------------------------|



E----------------------------------------------------------|
B-------------1-0----------------------------1-------------|
G-----0-0h2-0-2-0-0-0h2p0----------0-0h2-0---2-------------|
D----0--------------------2p0-----0--------0---------------|
A----------------------------------------------------------|
E---3----------------------------3-------------------------|


Verses

    G                                                C 7/6
                    Cm 7/6

E--------------------------------------------------------------3---------------3-------------------------------------|
B-------------1-0--------------------------1-0-------0-----------------0-------------------0-------0-------0---------|
G-----0-0h2-0-2-0-0-0h2p0----------0-0h2-0-2-0-2-0-----0---2-------2-------2-------0-----2-----2---------2-----2---0-|
D----0--------------------2p0-----0----------------0-----2-------2-------2-------2-----1---------1-----1---------1---|
A----------------------------------------------------3-------3-------3-------3-------3-------3-------3-------3-------|
E---3----------------------------3-----------------------------------------------------------------------------------|


      This is my heart's cry       I want to know the one who saved me             and 
me life      this is my
      This is my heart's cry       much more than just a great desire              it's 
a fire in my I hear my

    G                                             Bm
   Bm/G#             Am2             C2no3

E-------------------------------------------------------------2-----------------------------------------------3-----|
B-----------0-1-0------------------------1-0-1-0----------3---------------3-----------------1---------------3---3---|
G-----0-0h2-0-2-0-0-0h2p0--------0-0h2-0-2-0-2-0--------4---------4-----4-----4-----4-----4-----4---0-----0-------0-|
D----0--------------------2p0---0---------------------4---------4-----2-----------2-----2---------2-----0-----------|
A-------------------------------------------------0-2-------2-------------------------0-------0-------3-------------|
E---3--------------------------3------------------------------------4-------4---------------------------------------|


    heart's cry     to be so close to him that all my life becomes a testimony        of 
         my Savior's grace
    heart cry       each time I think about the cross where Jesus died the cross should 
beem mine but His love broke

Verse 1 ending
    G

E------------------------------------------------0--|
B-------------1-0--------------------------1-0------|
G-----0-0h2-0-2-0-0-0h2p0----------0-0h2-0-2-0------|
D----0--------------------2p0-----0------------0----|
A---------------------------------------------------|
E---3----------------------------3------------------|


     and love     this is my heart's cry

Verse 2 ending
    G

E---------------------------------------------------|
B-------------1-0--------------------------1-0------|
G-----0-0h2-0-2-0-0-0h2p0----------0-0h2-0-2-0------|
D----0--------------------2p0-----0-----------------|
A---------------------------------------------------|
E---3----------------------------3------------------|

                                             (let the last two notes ring)
     through time and heart my heart cry     He heard

                              (Bridge) (This isn't exactly how SCC plays it but it 
okay)

     G              F/A        Bb          F/A(2)            Ab
           Eb/G              F#               Bb/F

E------------------------------------6-----------8-----------------4--------------6-----------------2----------------1---|
B-------------1-0---------1--------6---6-------6---6-------------4---4----------4---4-------------2---2------------3---3-|
G-----0-0h2-0-2-0-0-----2--------7-----------5-----------------5--------------3-----------------3----------------3-------|
D----0----------------3--------------------------------------------------------------------------------------------------|
A-------------------0----------------------------------------------------------------------------------------------------|
E---3--------------------------6-----------5-----------------4--------------3-----------------2----------------1---------|


    my heart cry           now every other hope and dream is lost inside of this one 
to know the one who died for me

           Eb7                      Cm7                  F/A

E------------------3-----------3------------3----------------------|
B----------------3---3-------3---3--------4---4--------4-------1---|
G--------------3-----------3------------3------------3-------2-----|
D------------5-----------5------------5------------5-------3-------|
A----------6-----------6------------3------------3-------0---------|
E------------------------------------------------------------------|


    and to live my life         for Jesus Christ     is  my heart's

    G                                                C 7/6                          Cm 7/6

E--------------------------------------------------------------3---------------3-------------------------------------|
B-------------1-0--------------------------1-0-------0-----------------0-------------------0-------0-------0---------|
G-----0-0h2-0-2-0-0-0h2p0----------0-0h2-0-2-0-2-0-----0---2-------2-------2-------0-----2-----2---------2-----2---0-|
D----0--------------------2p0-----0----------------0-----2-------2-------2-------2-----1---------1-----1---------1---|
A----------------------------------------------------3-------3-------3-------3-------3-------3-------3-------3-------|
E---3----------------------------3-----------------------------------------------------------------------------------|

         (same melody as the verses)
    cry

    G                                             Bm               Bm/G#             Am2 
           C2no3

E-------------------------------------------------------------2-----------------------------------------------3-----|
B-----------0-1-0------------------------1-0-1-0----------3---------------3-----------------1---------------3---3---|
G-----0-0h2-0-2-0-0-0h2p0--------0-0h2-0-2-0-2-0--------4---------4-----4-----4-----4-----4-----4---0-----0-------0-|
D----0--------------------2p0---0---------------------4---------4-----2-----------2-----2---------2-----0-----------|
A-------------------------------------------------0-2-------2-------------------------0-------0-------3-------------|
E---3--------------------------3------------------------------------4-------4---------------------------------------|


                                       so let my life become a     testimony         of  
        my Savior's

    G

E-----------------------------------------------|
B-------------1-0----------------------------1--|
G-----0-0h2-0-2-0-0-0h2p0----------0-0h2-0---2--|
D----0--------------------2p0-----0--------0----|
A-----------------------------------------------|
E---3----------------------------3--------------|


    grace and love                              Oh....

    G                                                C 7/6                          Cm 7/6

E--------------------------------------------------------------3---------------3-------------------1---|
B-------------1-0--------------------------1-0-------0-----------------0-------------------0-----------|
G-----0-0h2-0-2-0-0-0h2p0----------0-0h2-0-2-0-2-0-----0---2-------2-------2-------0-----2-----2-------|
D----0--------------------2p0-----0----------------0-----2-------2-------2-------2-----1---------1-----|
A----------------------------------------------------3-------3-------3-------3-------3-------3---------|
E---3----------------------------3---------------------------------------------------------------------|


     This is my heart's cry          to stand before my Father one day and hear him say  
     well done

              G

E-------------------------------------------------------------------------------------------------|
B-----------------------1-0--------------------------1-0--------------------------1-0-------------|
G---------------0-0h2-0-2-0-0-0h2p0----------0-0h2-0-2-0-0-0h2p0----------0-0h2-0-2-0-0-0h2p0-----|
D--------------0--------------------2p0-----0--------------------2p0-----0--------------------2p0-|
A-------------------------------------------------------------------------------------------------|
E-------------3----------------------------3----------------------------3-------------------------|


   This is my heart's cry


Ending:

E------------------------------------|
B---------3-----------------------|
G-----0-2---0h2p0---0----------|
D----0------------4---------------|
A------------------------------------|
E---3-----------------3--------------|

TOP cifras de Steven Curtis Chapman

  1. Magnificent Obsession
  2. His Strength Is Perfect
  3. My Redeemer Is Faithful And True
  4. Let Us Pray Intro
  5. No Greater Love
  6. Let Us Pray
  7. Dive
  8. God Is God
  9. Miracle Of Mercy
  10. Who Makes the Rules

Pela Web