Cifras Web
Van Der Graaf Generator

My Room (Waiting For Wonderland)

Van Der Graaf Generator

4 acessos


           Bb     Ab          Eb      Bb     Ab
e|---------------------------------------------------|
B|--------6-3----4-------------------6-3-------------|
G|-----3------3----5-3-5---------3--------3-3-5-5----|
D|---5-------------------6-----5---------------------|
A|-6-------------------------6-----------------------|
E|---------------------------------------------------|


    Eb     Bb     Ab                      Eb     Db
e|---------------------------------------------------|
B|--------6-3----4-----------------------------------|
G|-----3------3----5-3-5-----------------------------|
D|---5-------------------6---6-5-6-5-6-5-------------|
A|-6-------------------------------------6------4----|
E|---------------------------------------------------|


Eb            Bb       Ab
Searching for diamonds in a sulphur mine
Eb         Bb              Ab
Leaning on props which are rotten
Eb         Bb        Ab
Hoping for anything, looking for a sign
                 Eb        Db
That I am not forgotten.

Eb        Bb           Ab
Lost in a labyrinth of future mystery
Eb         Bb           Ab
Tracing my steps all mistaken
Eb          Bb          Ab
Trusting to everything, praying it can be
                 Eb       Db   Eb   Db   Eb
That I am not forsaken.

         Db     Bbm    Gb E      B        A  Ab Db     B
e|---------------------------------------------------|
B|--------------------5--4---4------4--------------4-|
G|---6--5-6-3--1-3---------6----4-6---6--5--6--5-6---|
D|-----------------4---------------------------------|
A|-6-------------------------------------------------|
E|---------------------------------------------------|


        E    Ebm Dbm B      A  Ab Ab             Eb
e|---------------------------------------------------|
B|---4-5--5-4-------7--4-----------------------------|
G|-6------------6--------4-6--5--6-------------------|
D|----------------------------------6-5-6-5-6-5------|
A|----------------------------------------------6----|
E|---------------------------------------------------|


  Db          Bbm        Gb   E
I wait by the door, wondering when
         B                A
You will come and keep me warm
Ab Db           B          E
I  pray for the end of the night
  Ebm  Dbm B          A     Ab   Db
Hoping the light will still the storm

Ab                      Eb
Which presently entraps me:
         Bb          Ab
Helpless sea-monster stranded on the shore
  Eb           Bb         Ab
Marooned in an ecstasy of waiting
  Eb              Bb           Ab
I yearn, although knowing that I shall dive no more
                    Eb       Db   Eb   Db   Eb
In the tide already racing.

   Db             Bbm       Gb  E
My lungs burst to cry "Finally, how
        B                A
Can you leave me here to die?
Ab Db            B             E
I  freeze in the chill of this place
     Ebm Dbm      B        A    Ab  Db
With no  friendly face to smile goodbye -
Ab                     Eb       Db   Eb   Db   Eb
How could you let it happen?"

Saxofone: Ebm  Bbm  Abm  Eb  Db

              Bb                          Ab
e|---------------------------------------------------|
B|--------6-3----6-3----6-3----6-3----4--------------|
G|-----3------3------3------3------3----5-3-5--------|
D|---5----------------------------------------6------|
A|-6-------------------------------------------------|
E|---------------------------------------------------|


       Eb     Bb      Ab   Ebm    Dbm    B       Abm
e|---------------------------------------------------|
B|--------6-3-----------------4-1----4---------------|
G|-----3------3-3-5-5------3------3----5-3-5---------|
D|---5-------------------4-------------------6-------|
A|-6-------------------6-----------------------------|
E|---------------------------------------------------|


                      Ebm   Dbm                 Ebm
e|---------------------------------------------------|
B|---------------------------------------------------|
G|---------------------------------------------------|
D|-6-6-4--6--4-6-4-----------------------------------|
A|-----------------6-----4-------------------6-------|
E|---------------------------4-4-2--4--2-4-2---------|


Eb                Bb
Dreams, hopes and promises, promises, promises, promises,
Ab
fragments out of time
Eb           Bb               Ab
All of these things have been spoken
Ebm              Dbm        B                 Abm
Still, you don't understand how it feels when I'm
                          Ebm   Dbm   Ebm   Dbm
Waiting for them to be broken.
                          Ebm   Dbm
Waiting for them to be broken.
                         ( Ebm  Dbm )
Waiting for them to be broken.

TOP cifras de Van Der Graaf Generator

  1. Killer
  2. Refugees
  3. My Room (Waiting For Wonderland)

Pela Web