Cifras Web
Watchtower

Dedicação Cristã

Watchtower

7 acessos


E|-----------------------------------------------------|
B|-----------------------------------------------------|
G|--0------------------0-------2--2--0-----------------|
D|-----2--3-2--0----2--------------------0-2-----------|
A|-----3---------3--3-------3--3-----2---------3-2-----|
E|-----------------------------------------------------|



E|-----------------------------------------------------
B|-----------------------------------------------------
G|-----------------------------------------------------
D|----3--3--2----0---------0--2-0-0-2-3----------------
A|--3-5-----2--2-2--3--3------3---3---3-----2----------
E|------------------5--5-------------------------------



E|-----------------------------------------------------
B|---------------------------------0-----1-------------
G|--0------------------0-----2--2----------------------
D|-----2--3-2--0----2--------------0--2--2-------------
A|-----3---------3--------3--3------------------1------
E|-----------------------------------------------------


E|-----------------------------------------------------
B|-------0-1-------------------------------------------
G|----2--0-2--0----------------------------------------
D|----3----------2-2--0------0--2--2--3--2--0----------
A|--3---------3----3-----3---3--3--------2----3--------
E|-----------------------5--------------------3--------

Top cifras de Watchtower

  1. Ele Chamará - Cântico 111
  2. Dedicação Cristã
  3. Danger Toy Solo
  4. O Que Jeová Uniu

Pela Web