Cifras Web
Afroman

Colt 45

Afroman

17 acessos

this is just a fun little version, mainly to play along with the song or with someone
knows it extremely well. GREAT for party's!!!


Chorus:

   Am7       G7                                             Am7

e|-----------3---------------------------------------------------|
B|-1---------3----------------1-----------------------------1----|
G|-----------4---------------------------------------------------|
D|-2---------3----------------2--------------------0h2-0----2----|
A|-----------5-------------------------------------------3-------|
E|-x---------3----------------x-----------------------------x----|



Verse:


e|---------------------------------------------------------------|
B|---------------------------------------------------------------|
G|--------------------------improvise in this area..bluesy-------|
D|---5-5-5-5-5-5-5-5-5h7-----------------------------------------|
A|---------------------------------------------------------------|
E|---------------------------------------------------------------|


I left it kinda open cause they do sumthin different everytime so feel free to do whatever.
This is my first tab and i think its pretty dam good. ratings would be awesome so please
most importantly have fun with the song cause its funny as hell!!!!

PEACE!!!!!!!!!!!!

TOP cifras de Afroman

  1. Crazy Rap Intro
  2. Palmdale
  3. Because I Got High Intro
  4. Because I Got High
  5. Colt 45
  6. Dope Fiend
  7. She Wont Let Me
  8. Colt 45 Intro
  9. The Joker
  10. Because I Got High Live Intro

Pela Web