Cifras Web
Alemão Ronaldo

A Sombra Do Teu Amor

Alemão Ronaldo

9 acessos

Intro :

Riff1

Guitarra 2 :


e:-----------------:
B:-----------------:
G:----8-8-8-8-8----:_________Repita quntaz vezes for preciso cerca de 14 x .
D:----9-9-9-9-9----:
A:----9-9-9-9-9----:
E:----7-7-7-7-7----:



Riff2 

Guitarra 1 :   "Solo"


e:---------------------------------------------:
B:---------------------------------------------:
G:---------------------------------------------:
D:----6-7-6-----6~----6-7-6-----6/9----4/6-4~--:
A:----------9-7------------9-7-----------------:
E:---------------------------------------------:



Riff3 

Guitarra 2 :
 
Obs : Nesta parte imagino que há uma 3ª guitarra , uma num dedilhadinho e outra faz isto :
obs 2 : deixe soar as notas


e:----xx-----xx-4---xx-5-5---xx-7-7----:
B:----xx-----xx-5---xx-5-5---xx-7-7----:
G:----xx-1---xx-6---xx-3-3---xx-8-8----:
D:----xx-2---xx-6---xx-4-4---xx-9-9----:
A:----xx-2---xx-4---xx-4-4---xx-9-9----:
E:----xx-0---xx-----xx-5-5---xx-7-7----:



Riff4 

Guitarra 1 :


e:---------------:
B:----4h5p4------:
G:----------4-6--:
D:---------------:
A:---------------:
E:---------------:


Riff5

Guitarra 2 :


e:----xx-----xx-4---xx-5-5---xx------------:
B:----xx-----xx-5---xx-5-5---xx------------:
G:----xx-1---xx-6---xx-3-3---xx-8888888----:
D:----xx-2---xx-6---xx-4-4---xx-9999999----:
A:----xx-2---xx-4---xx-4-4---xx-9999999----:
E:----xx-0---xx-----xx-5-5---xx-7777777----:



Letra 


Durante a letra é tocado a cada dois versos o Riff3 e no final do 1ª desses dois o Riff 4


Riff3           Riff4
Já rodei o mundo
Tentando encontrar

Feito um vagabundo
Mudando de lugar

Contando estrelas
Em noite de luar

Pensando em voar 
Querendo ver você chegar  


OBS : No último verso tocar o Riff5


Refrão :

Guitarra 1 :


e:-----------| |-----------|
B:----9\1----| |----1/9----|
G:-----------| |-----------|
D:-----------| |-----------|
A:-----------| |-----------|
E:-----------| |-----------|


Guitarra 2 :

Parte1                                              Parte2

e:-----------------------------------------------| |------------------------------------------------------
B:---------------5-5--5-5--------------5-4-2-4---| |---------------5-5--5-5-------------------------------
G:----6-6--6-6---6-6--6-6---6-6--6-6---6-4-2-4---| |----4-4--4-4---6-6--6-6---3-3--4-3---4-4---8-8-8-8-8-8
D:----7-7--7-7---6-6--6-6---7-7--7-7---6-4-2-4---| |----7-7--7-7---6-6--6-6---4-4--4-4---7-7---9-9-9-9-9-9
A:----7-7--7-7---4-4--4-4---7-7--7-7---4-2-0-2---| |----7-7--7-7---4-4--4-4---4-4--4-4---7-7---9-9-9-9-9-9
E:----5-5--5-5--------------5-5--5-5-------------| |----5-5--5-5--------------2-2--2-2---5-5---7-7-7-7-7-7



Letra do Refrão

Parte1
Do espaço sideral
E fazer meu carnaval
Querendo só estar contigo

Parte2
E num dia de sol
Sentindo um calor
Beber água sobre a sombra ... do teu amor .







Anotações : Bem é só isso . Tanto a letra como a cifra repetem de novo no decorrer da música.
Só a guitarra 3 que entra em um solinho no meio do verso e no final 
da música , mas nada que interfira muito.
Tanto que estes solos dão para enganar é só tocar notas com slides e 
hammers.

TOP cifras de Alemão Ronaldo

  1. Mentiras
  2. A Despedida
  3. Volta Pra Mim
  4. Agora somos família
  5. Estrela Mulher
  6. A Noite Toda
  7. Bye Flowers
  8. Farol
  9. Estranha Paz
  10. Me leva pra casa

Pela Web