Cifras Web
Allison

Aqui

Allison

11 acessos

Intro
   Guitarra 1              x9
 Eb|------13------13-------|-11-10----10------------|
 Bb|-10/11---10/11--10/11--|-------11------11-10/11-|
 Gb|-----------------------|------------------------|
 Db|-----------------------|------------------------|
 Ab|-----------------------|------------------------|
 Eb|-----------------------|------------------------|

   Guitarra 2
 Eb|------------------------------------------------------------------|
 Bb|------------------------------------------------------------------|
 Gb|------------------------------------------------------------------|
 Db|-8888888888888888111111111111111155555555555555553333333333333333-|
 Ab|-8888888888888888111111111111111155555555555555553333333333333333-|
 Eb|-6666666666666666000000000000000033333333333333331111111111111111-|

Verso
   Guitarra 1
 Eb|--------------------------------------------------------|
 Bb|--------------------------------------------------------|
 Gb|---3--3-3---3--3-3---3--3-3---3--3-3--------------------|
 Db|--3-3--3---3-3--3---3-3--3---3-3--3-----3--3-3---1--1-1-|
 Ab|-1---1----1---1------------------------3-3--3---1-1--1--|
 Eb|-------------------1---1----1---1-----1---1----0---0----|

   Guitarra 2
 Eb|-------------------------------------------------|
 Bb|-------------------------------------------------|
 Gb|---3~-3~---------333333333333333-5555555555555555|
 Db|--3-------3~-3~--333333333333333-5555555555555555|
 Ab|-1-------3-------111111111111111-3333333333333333|
 Eb|-------------------------------------------------|
                     ..............................PM

Coro
   Guitarra 1 y 2
 Eb|---------------------------------------------------------------------|
 Bb|---------------------------------------------------------------------|
 Gb|---------------------------------------------------------------------|
 Db|-8888888888888888111111111111111155555555555555553333333333333333-1-3|
 Ab|-8888888888888888111111111111111155555555555555553333333333333333-1-3|
 Eb|-6666666666666666000000000000000033333333333333331111111111111111-0-1|

post-Coro
   Guitarra 1
 Eb|------------------------|
 Bb|------------------------|
 Gb|---3---3-2~-3-3-3-2-----|
 Db|-----3--------------3---|
 Ab|----------------------5-|
 Eb|------------------------|x2
  
   Guitarra 2                    
 Eb|----------------------------------|
 Bb|----------------------------------|
 Gb|-33333333333333335555555555555555-|
 Db|-33333333333333335555555555555555-|
 Ab|-11111111111111113333333333333333-|
 Eb|----------------------------------|

verso2
   Guitarra 1
 Eb|---------------------------------------------------|
 Bb|---------------------------------------------------|
 Gb|-3>-3>-------3>------------------------------------|
 Db|-3>-3>-3>-3>-3>------------------------------------|
 Ab|-1>-1>-3>-3>-1>--11111111111111111-3333333333333333|
 Eb|----1>-0>-1>---------------------------------------|
     .................................................PM

   Guitarra 2
 Eb|-------------------------------------------------|
 Bb|-------------------------------------------------|
 Gb|-3>--------------333333333333333-5555555555555555|
 Db|-3>--------------333333333333333-5555555555555555|
 Ab|-1>--------------111111111111111-3333333333333333|
 Eb|-------------------------------------------------|
                     ...............................PM

Coro
   Guitarra 1 y 2
 Eb|-----------------------------------------------------------------------|
 Bb|-----------------------------------------------------------------------|
 Gb|-----------------------------------------------------------------------|
 Db|-8888888888888811111111111111555555555555555333333333333333-11-11-33-33|
 Ab|-8888888888888811111111111111555555555555555333333333333333-11-11-33-33|
 Eb|-6666666666666600000000000000333333333333333311111111111111-00-00-11-11|


Intermedio
   Guitarra 1 y 2                    
 Eb|--------------------------------------------|
 Bb|--------------------------------------------|
 Gb|--------------------------------------------|
 Db|-1111-88-11-88-11-11-33-33--1111-88-11-88-1~|
 Ab|-1111-88-11-88-11-11-33-33--1111-88-11-88-1~|
 Eb|-0000-66-00-66-00-00-11-11--0000-66-00-66-0~|
     ....    ..                 ....    ..PM     
coro2
   Guitarra 1 y 2
 Eb|----------------------------------------------------------------------|
 Bb|----------------------------------------------------------------------|
 Gb|-555555555555555-----------------------------------------------------5|
 Db|-555555555555555-333333333333333-777777777777777-555555555555555-3-5-5|
 Ab|-333333333333333-333333333333333-777777777777777-555555555555555-3-5-3|
 Eb|-----------------111111111111111-555555555555555-333333333333333-1-3--|



TOP cifras de Allison

  1. Llama Por Favor
  2. Me Cambi
  3. Perdido
  4. Addissi
  5. Me Cambio
  6. Aqui
  7. Mi Negra
  8. Addisi
  9. Fragil
  10. Memorama

Pela Web