Cifras Web
Ashanti

Only You Intro

Ashanti

9 acessos

The other " Only You " tab sounds right but the real notes are lower . This is 100%
correct and on the right octave. This pattern basically repeats for the whole song.
Use heavy distortion and maybe a little reverb effect or somethin to recreate the
sound just like it is on the song.

              *  Note: The bottom E string is tuned to a low C#



e-------------------------------------------------------------------|
b-------------------------------------------------------------------|
g-------------------------------------------------------------------|
D--------6----------------7--------7--------------------------------|
A-------------------------------------------------------------------|
C#---0-------0--2--3--5-------5-------------------------------------|




e-------------------------------------------------------------------|
b-------------------------------------------------------------------|
g-------------------------------------------------------------------|
D--------6----------------7--------6--------------------------------|
A-------------------------------------------------------------------|
C#---0-------0--2--3--5-------3-------------------------------------|


       (Then repeat to top)

Top cifras de Ashanti

  1. Rock Wit U
  2. Southside
  3. Only You Intro

Pela Web