Cifras Web
Banda Pagodão

Vapt-vupt

Banda Pagodão

19 acessos


E|--2--0--2--0--2-0--2--0--2--0--2--0--2--0--2--0-  8x
B|------------------------------------------------
G|------------------------------------------------
D|------------------------------------------------
A|------------------------------------------------
E|------------------------------------------------




E|---------------0--------------------0-----------  4x
B|--2---2---2-------3--0--3--0--3--0--------------
G|----2---2---2-----------------------------------
D|------------------------------------------------
A|------------------------------------------------
E|------------------------------------------------



 Segunda Parte


E|--2--0--2--0--2-0--2--0--2--0--2--0--2--0--2--0-- 4x
B|-------------------------------------------------
G|-------------------------------------------------
D|-------------------------------------------------
A|-------------------------------------------------
E|-------------------------------------------------




E|---------------0--------------------0-----------  8x
B|--2---2---2-------3--0--3--0--3--0--------------
G|----2---2---2-----------------------------------
D|------------------------------------------------
A|------------------------------------------------
E|------------------------------------------------


Repeti a partir da Segunda parte

TOP cifras de Banda Pagodão

  1. Vapt-vupt
  2. Vitamina

Pela Web