Cifras Web
Banda Pagodão

Vitamina

Banda Pagodão

11 acessos


E|----7-5--4-----7-5--4-----7-5--4-----4--5-7-----
B|------------7----------7----------7------------- (9x)
G|------------------------------------------------
D|------------------------------------------------
A|------------------------------------------------
E|------------------------------------------------



E|-------------------------------------------------
B|-------------------------------------------------
G|-------------------------------------------------
D|-------------------------------------------------
A|---7--7---5--5---4--4---2--2---------------------
E|-------------------------------------------------




E|--------------------------------------------------
B|-------------------------------------------------- (8x)
G|--------------------------------------------------
D|---7--7--7--4--4--4--------6--6--6--4--4--4-------
A|---------------------7--7--------------------7-7--
E|--------------------------------------------------




E|--------------------------------------------------- (9x)
B|---------------------------------------------------
G|------------------2-----------------------4--------
D|---4--2--4--2--4-----4--2--6--4--6--4--6-----6--4--
A|---------------------------------------------------
E|---------------------------------------------------


Repeti Tudo

TOP cifras de Banda Pagodão

  1. Vapt-vupt
  2. Vitamina

Pela Web