Cifras Web
Baranga

Whiskey do Diabo

Baranga

11 acessos

Intro:

E|-------------|-----------|
B|-------------|-----------|
G|-------------|-----------|
D|-----5-------|---5-------|
A|-5-5-5-5-8-5-|-5-5-5-8-5-|
E|-5-5---5-8-5-|-5---5-8-5-|

   D5  G5  F5

D5
Certa vez num lugar longínquo
F5
Entrei num bar para tomar um trago
D5
Não tinha bourbon conhecido
C5
Só tinha um com a cara do diabo


E|-------------|-----------|
B|-------------|-----------|
G|-------------|-----------|
D|-----5-------|---5-------|2X
A|-5-5-5-5-8-5-|-5-5-5-8-5-|
E|-5-5---5-8-5-|-5---5-8-5-|


D5
Então eu disse, me dá esse aí
F5
Senão de noite não consigo dormir
D5
Depois disso vivo tocando slide
C5
Ganhando a vida na big cidade


E|-------------|-----------|
B|-------------|-----------|
G|-------------|-----------|
D|-----5-------|---5-------|2X
A|-5-5-5-5-8-5-|-5-5-5-8-5-|
E|-5-5---5-8-5-|-5---5-8-5-|


G5 A5
   Mais uma dose de whiskey ruim
G5
Pra eu poder dormir
A5
Mais um passo que está sendo dado
G5
  Um trato feito com o diabo

TOP cifras de Baranga

  1. Filho Bastardo
  2. Baranga
  3. Maverick
  4. Meu Mal
  5. Tudo o que eu tenho na vida
  6. Whiskey do Diabo
  7. Duas Rodas

Pela Web