Cifras Web
Bikini

Adj Helyet Solo

Bikini

15 acessos

Solo:


e------------------------------------5-3-8-7-3--------------------------------|
h----------------7-7-6-8-6-5-----5-3-----------3------------5-3---3-3-5-------|
g--2-4-5-5-5-4-2-------------5-2-----------------4-4-5-4-2------5-------5-4-2-|
D-----------------------------------------------------------------------------|
A-----------------------------------------------------------------------------|
E-----------------------------------------------------------------------------|


e----------------------------------|
h--------------------5-------------|
g--2-4-5-5-5-4-2-4-0---5-4-4-5-4-2-|
D----------------------------------|
A----------------------------------|
E----------------------------------|

TOP cifras de Bikini

  1. Adj Helyet Solo
  2. Adj Helyet
  3. Kozeli Helyeken

Pela Web