Cifras Web
Brett Dennen

Just Like The Moon

Brett Dennen

9 acessos

(intro)


      G		C			G	           A
E|--------------------0----------------------------7---5-5h7----7p5------|
B|---3--------8--------------------3-------8----8-8---7-7----7-7---------|
G|---0-----------0---------X2------0-------------7---7--------7----------|
D|-------------------------------------------------------------------x2--|
A|-----5/10---------------------------5/10-------------------------------|
E|-3--------------8--------------3---------------------------------------|


(verse 1)

E|--------------------0----------------------------7---5-5h7----7p5------|
B|---3--------8--------------------3-------8----8-8---7-7----7-7---------|
G|---0-----------0---------X2------0-------------7---7--------7------x2--|
D|-----------------------------------------------------------------------|
A|-----5/10---------------------------5/10-------------------------------|
E|-3--------------8--------------3---------------------------------------|


(chorus)

      Em          C                         D (quickly mute last stroke)
E|-------------------------------------------2-2-2-----------------------|
B|---0----------1-------------1--------------3-3-------------------------|
G|---0----------0-------------0------------------------------------------|
D|-----------------------------------------0---0-------------------------|
A|------0-2-5--3-----0-2-5---3----0-2-5----------------------------------|
E|-0--3------------3------------3----------------------------------------|



      Em          C             Em             D
E|-----------------------------------------------------------------------|
B|---0----------1-------------0--------------3---------------------------|
G|---0----------0-------------0--------------2---------------------------|
D|-----------------------------------------0-----------------------------|
A|------0-2-5--3-----0-2-5--------0-2-5----------------------------------|
E|-0--3------------3--------0---3----------------------------------------|


(interlude)

E|--------------------0----------------------------7---5-5h7----7p5------|
B|---3--------8--------------------3-------8----8-8---7-7----7-7---------|
G|---0-----------0---------X2------0-------------7---7--------7------x2--|
D|-----------------------------------------------------------------------|
A|-----5/10---------------------------5/10-------------------------------|
E|-3--------------8--------------3---------------------------------------|


(verse 2)

E|--------------------0----------------------------7---5-5h7----7p5------|
B|---3--------8--------------------3-------8----8-8---7-7----7-7---------|
G|---0-----------0---------X2------0-------------7---7--------7------x2--|
D|-----------------------------------------------------------------------|
A|-----5/10---------------------------5/10-------------------------------|
E|-3--------------8--------------3---------------------------------------|


(chorus)

E|-------------------------------------------2-2-2-----------------------|
B|---0----------1-------------1--------------3-3-------------------------|
G|---0----------0-------------0------------------------------------------|
D|-----------------------------------------0---0-------------------------|
A|------0-2-5--3-----0-2-5---3----0-2-5----------------------------------|
E|-0--3------------3------------3----------------------------------------|



E|-----------------------------------------------------------------------|
B|---0----------1-------------0--------------3---------------------------|
G|---0----------0-------------0--------------2---------------------------|
D|-----------------------------------------0-----------------------------|
A|------0-2-5--3-----0-2-5--------0-2-5----------------------------------|
E|-0--3------------3--------0---3----------------------------------------|


(interlude)

E|--------------------0----------------------------7---5-5h7----7p5------|
B|---3--------8--------------------3-------8----8-8---7-7----7-7---------|
G|---0-----------0---------X2------0-------------7---7--------7------x2--|
D|-----------------------------------------------------------------------|
A|-----5/10---------------------------5/10-------------------------------|
E|-3--------------8--------------3---------------------------------------|


(bridge)

      Am                   Dm                    Am      G
E|--12-12-12----12-12----------------------------------------------------|
B|-------------------------10---------10-------5------3------------------|
G|--14------14--14----0-10---10----10----0----0-0----0--0----------------|
D|-----------------------------------------------------------------------|
A|----------------------12-----12--12--------7---0--------0--------------|
E|--------------------------------------------------3--------------------|



E|-----------------------------------------------------------------------|
B|----5------3------5-------3-----5-5----3-3-----------------------------|
G|---0-0----0-0----0-0-----0-0----0-0----0-0-----------------------------|
D|-----------------------------------------------------------------------|
A|--7---0------0--7---0-------0---7--------------------------------------|
E|---------3-------------3---------------3-------------------------------|



      Am                   Dm                    Am      G
E|--12-12-12----12-12----------------------------------------------------|
B|-------------------------10---------10-----------5----------3----------|
G|--14------14--14----0-10---10----10----0--------0----------0-----------|
D|-----------------------------------------------------------------------|
A|----------------------12-----12--12--------0h7-7-----------------------|
E|----------------------------------------------------0h3--3-------------|



E|-----------------------------------------------------------------------|
B|---------5------3---------5-------3--------5----------3----------------|
G|--------0------0--------0--------0---------0----------0----------------|
D|-----------------------------------------------------------------------|
A|--0h7-7-----------0h7-7---------------0h7-7----------------------------|
E|----------0h3-3------------0h3-3----------------0h3-3------------------|


(solo chorus)

E|-----------------------------------------------------------------------|
B|--0--------------------------------------------------------------------|
G|----0----------------0-0h2p0---------------------00h2p-----------------|
D|-----------------0h2----------2-------------0h2---------2--------------|
A|---------0-2-5--3------------3-----0-2-5--3-----------3-----0-2-5------|
E|-0-----3-------------------------3------------------------3------------|



E|---2--0h2---------------------------------------------------------------|
B|-----------------------0--------------------------------0--------3--3-3-|
G|--2-------2-2h4p2-------0-------------0-0h2p0------------0-----------2--|
D|-0---0-----------2p0--------------0h2---------2-----------------0--0----|
A|---------------------------0-2-5-3-----------3---0-2-5-----0-2-5--------|
E|---------------------0---3---------------------3-------0--3-------------|


(chorus)

E|-------------------------------------------2-2-2-----------------------|
B|---0----------1-------------1--------------3-3-------------------------|
G|---0----------0-------------0------------------------------------------|
D|-----------------------------------------0---0-------------------------|
A|------0-2-5--3-----0-2-5---3----0-2-5----------------------------------|
E|-0--3------------3------------3----------------------------------------|



E|-----------------------------------------------------------------------|
B|---0----------1-------------0--------------3---------------------------|
G|---0----------0-------------0--------------2---------------------------|
D|-----------------------------------------0-----------------------------|
A|------0-2-5--3-----0-2-5--------0-2-5----------------------------------|
E|-0--3------------3--------0---3----------------------------------------|


(interlude)

E|--------------------0----------------------------7---5-5h7----7p5------|
B|---3--------8--------------------3-------8----8-8---7-7----7-7---------|
G|---0-----------0---------X2------0-------------7---7--------7------x2--|
D|-----------------------------------------------------------------------|
A|-----5/10---------------------------5/10-------------------------------|
E|-3--------------8--------------3---------------------------------------|


(final verse)

E|--------------------0----------------------------7---5-5h7----7p5------|
B|---3--------8--------------------3-------8----8-8---7-7----7-7---------|
G|---0-----------0---------X2------0-------------7---7--------7------x3--|
D|-----------------------------------------------------------------------|
A|-----5/10---------------------------5/10-------------------------------|
E|-3--------------8--------------3---------------------------------------|


E|--------------------0---------------------------7--5-------------------|
B|---3--------8--------------------3-------8-----8---7-------------------|
G|---0-----------0---------X2------0------------7----7-------------------|
D|-----------------------------------------------------------------------|
A|-----5/10---------------------------5/10-------------------------------|
E|-3--------------8--------------3---------------------------------------|

| /   slide up
| \   slide down
| h   hammer-on
| p   pull-off
| ~   vibrato
| +   harmonic
| x   Mute note
| b   Bend
| pb  Pre-bend
| br  Bend release
| pbr Pre-bend release
| brb Bend release bend

TOP cifras de Brett Dennen

  1. The One Who Loves You The Most
  2. Aint No Reason
  3. So Long Sweet Misery
  4. Darlin Do Not Fear
  5. All We Have
  6. Shes Mine
  7. Desert Sunrise
  8. Just Like The Moon
  9. Cassidy

Pela Web