Cifras Web
Comeback Kid

Talk Is Cheap

Comeback Kid

8 acessos

Intro
E|-----------------------------------------------|
B|-----------------------------------------------|
G|-----------------------------------------------|
D|0~--------------------------------------6-6-6--|
A|0~-let it play 'till the drum enter-----6-6-6--|
D|0~--------------------------------------6-6-6--|

Your debt's escalating...

E|-----------------------------------------------|
B|-----------------------------------------------|
G|----------------------5-5-5-5-5-5-5-5-5-5-5-5--|
D|0-0-0-0-0-5-3-0-3-2-0-5-5-5-5-5-5-5-5-5-5-5-5--|
A|0-0-0-0-0-5-3-0-3-2-0-3-3-3-3-3-3-3-3-3-3-3-3--|
D|0-0-0-0-0-5-3-0-3-2-0--------------------------|


Run your mouth in circles...

E|-----------------------------------------------|
B|-----------------------------------------------|
G|----------------------3-3-3-3-3-3--------------|
D|0-0-0-0-0-5-3-0-3-2-0-3-3-3-3-3-3-6-6-6-6-6-6--|
A|0-0-0-0-0-5-3-0-3-2-0-1-1-1-1-1-1-6-6-6-6-6-6--|
D|0-0-0-0-0-5-3-0-3-2-0-------------6-6-6-6-6-6--|


Your talk is cheap...        Think you're...

E|-----------------------------------------------|
B|-----------------------------------------------|
G|-----------------------------------------------|
D|0~~-------0-0-5--0-0-3-3---0~~----------5-0-3--|
A|0~~-------0-0-5--0-0-3-3---0~~----------5-0-3--|
D|0~~-------0-0-5--0-0-3-3---0~~----------5-0-3--|

     P.M.   . .    . .

Those basement dwelling days...

E|-----------------------------------------------|
B|-----------------------------------------------|
G|----------------------5-5-5-5-5-5-7-7-7-9-9-9--|
D|0-0-0-0-0-5-3-0-3-2-0-5-5-5-5-5-5-X-X-X-X-X-X--|
A|0-0-0-0-0-5-3-0-3-2-0-3-3-3-3-3-3-5-5-5-7-7-7--|
D|0-0-0-0-0-5-3-0-3-2-0--------------------------|


Moving mountains in your head...

E|-----------------------------------------------|
B|-----------------------------------------------|
G|----------------------3-3-3-3-3-3--------------|
D|0-0-0-0-0-5-3-0-3-2-0-3-3-3-3-3-3-6-6-6-6-6-6--|
A|0-0-0-0-0-5-3-0-3-2-0-1-1-1-1-1-1-6-6-6-6-6-6--|
D|0-0-0-0-0-5-3-0-3-2-0-------------6-6-6-6-6-6--|


Dive, sink, drown...

E|------------------------------------------------|
B|------------------------------------------------|
G|6-6-6-6-6-6-6-6-6-6-6-6-9-9-9-9-9-9-9-9-9-9-9-9-|
D|X-X-X-X-X-X-X-X-X-X-X-X-X-X-X-X-X-X-X-X-X-X-X-X-|
A|4-4-4-4-4-4-4-4-4-4-4-4-7-7-7-7-7-7-7-7-7-7-7-7-|
D|------------------------------------------------|


Dive, sink, drown...

E|----------------------------------------------------------|
B|----------------------------------------------------------|
G|13-13-13-13-13-13-13-13-13-13-13-13-5-5-5-5-5-3-3-3-3-3-3-|
D|XX-XX-XX-XX-XX-XX-XX-XX-XX-XX-XX-XX-5-5-5-5-5-3-3-3-3-3-3-|
A|11-11-11-11-11-11-11-11-11-11-11-11-5-5-5-5-5-3-3-3-3-3-3-|
D|----------------------------------------------------------|


Your talk is cheap...        Think you're...

E|-----------------------------------------------|
B|-----------------------------------------------|
G|-----------------------------------------------|
D|0~~-------0-0-5--0-0-3-3---0~~----------5-0-3--|
A|0~~-------0-0-5--0-0-3-3---0~~----------5-0-3--|
D|0~~-------0-0-5--0-0-3-3---0~~----------5-0-3--|

     P.M.   . .    . .

Convinced of your false visions...

E|-----------------------------------------------|
B|-----------------------------------------------|
G|----------5/7----------------------------------|
D|0~~-------5/7-0-5-0-0-5-4-3-0-0-0-0-3-0-5-0~~--|
A|0~~-------3/5-0-5-0-0-5-4-3-0-0-0-0-3-0-5-0~~--|
D|0~~-----------0-5-0-0-5-4-3-0-0-0-0-3-0-5-0~~--|

                .   . .         . . .

You're the sucker...

E|-----------------------------------------------|
B|-----------------------------------------------|
G|----------5/7----------------------------------|
D|0~~-------5/7-0-5-0-0-5-4-3--------------------|
A|0~~-------3/5-0-5-0-0-5-4-3--------------------|
D|0~~-----------0-5-0-0-5-4-3--------------------|

                .   . .

Keep talking...

E|-----------------------------------------------|
B|-----------------------------------------------|
G|-----------------------------------------------|
D|0-0-0-3-3-0-0-5-5-0-0-3-3-0-0-0----------------|
A|0-0-0-3-3-0-0-5-5-0-0-3-3-0-0-0----------------|
D|0-0-0-3-3-0-0-5-5-0-0-3-3-0-0-0----------------|



E|-----------------------------------------------|
B|-----------------------------------------------|
G|5/7--------------------------------------------|
D|5/7-0-5-0-0-5-4-3-0-0-0-0-3-0-5----------------|
A|3/5-0-5-0-0-5-4-3-0-0-0-0-3-0-5----------------|
D|----0-5-0-0-5-4-3-0-0-0-0-3-0-5----------------|

      .   . .         . . .

Keep talking away...

E|-----------------------------------------------|
B|-----------------------------------------------|
G|-----------------------------------------------|
D|0-0-0-3-3-0-0-5-5-0-0-3-3-0-0-0----------------|
A|0-0-0-3-3-0-0-5-5-0-0-3-3-0-0-0----------------|
D|0-0-0-3-3-0-0-5-5-0-0-3-3-0-0-0----------------|



E|-----------------------------------------------|
B|-----------------------------------------------|
G|5/7--------------------------------------------|
D|5/7-0-5-0-0-5-4-3-0-0-0-0-3-0-5----------------|
A|3/5-0-5-0-0-5-4-3-0-0-0-0-3-0-5----------------|
D|----0-5-0-0-5-4-3-0-0-0-0-3-0-5----------------|

      .   . .         . . .

Cashing in all your petty words...

E|-----------------------------------------------|
B|-----------------------------------------------|
G|-----------------------------------------------|
D|0-0-0-3-3-0-0-5-5-0-0-3-3-0-0-0----------------|
A|0-0-0-3-3-0-0-5-5-0-0-3-3-0-0-0----------------|
D|0-0-0-3-3-0-0-5-5-0-0-3-3-0-0-0----------------|

  . . . . . . . . . . . . . . . .


E|-----------------------------------------------|
B|-----------------------------------------------|
G|5/7--------------------------------------------|
D|5/7-0-5-0-0-5-4-3-0-0-0-0-3-0-5----------------|
A|3/5-0-5-0-0-5-4-3-0-0-0-0-3-0-5----------------|
D|----0-5-0-0-5-4-3-0-0-0-0-3-0-5----------------|

      .   . .         . . .

You keep talking away...

E|-----------------------------------------------|
B|-----------------------------------------------|
G|-----------------------------------------------|
D|0-0-0-3-3-0-0-5-5-0-0-3-3-0-0-0----------------|
A|0-0-0-3-3-0-0-5-5-0-0-3-3-0-0-0----------------|
D|0-0-0-3-3-0-0-5-5-0-0-3-3-0-0-0----------------|


It's so far from me...

E|-----------0--------0~~------------------------|
B|--------------0-----0~~------------------------|
G|-----------------0--0~~------------------------|
D|0~~-------------------------5-3-0-3------------|
A|0~~-------------------------5-3-0-3------------|
D|0~~-------------------------5-3-0-3------------|


por Hugo Souto

TOP cifras de Comeback Kid

  1. All In A Year
  2. Hailing On Me
  3. Trouble I Love
  4. Wake The Dead
  5. Give And Take
  6. Partners In Crime
  7. Bright Lights Keep Shining
  8. Without A Word
  9. My Other Side
  10. Die Tonight

Pela Web