Cifras Web
Corrosion Of Conformity

Future Now

Corrosion Of Conformity

8 acessos

TUNING: Tune 1 whole step down (D)

INTRO:

d |------------------------------------------------|
A |------------------------------------------------|
F |------------------------------------------------|
C |--------------\\\\\\\\\\\\\\\\\-----------------|
G |--------------\\\\\\\\\\\\\\\\\-----------------|
D |--3-----5-----\\\\\\\\\\\\\\\\\-----------------|

               [PICK SCRAPE----]

VERSE:

d |------------------------------------------------|
A |------------------------------------------------|
F |-------------------------------7---7---7---7----|
C |--7--5--7--5--7--5--7--7--10---7---7---7---7----|
G |--7--5--7--5--7--5--7--7--10---5---5---5---5----|
D |--5--3--5--3--5--3--5--5--8---------------------|



d |------------------------------------------------|
A |------------------------------------------------|
F |------------------------------------------------|
C |--7--5--7--5--7--5--7--7--10--------------------|
G |--7--5--7--5--7--5--7--7--10--------------------|
D |--5--3--5--3--5--3--5--5--8---------------------|


CHORUS:

d |------------------------------------------------|
A |------------------------------------------------|
F |--------------------7---7---7---7------5--7-----|
C |--7---7---7-----7---7---7---7---7---7--5--7--5--|
G |--7---7---7-----7---5---5---5---5---7--3--5--5--|
D |--5---5---5-----5-------------------5--------3--|



d |------------------------------------------------|
A |------------------------------------------------|
F |------------------------------------------------|
C |--7--5--7--5--7--5--7--7--10--------------------|
G |--7--5--7--5--7--5--7--7--10--------------------|
D |--5--3--5--3--5--3--5--5--8---------------------|


SOLO:

d |----------------------------------------------------------------|
A |----------------------------------------------------------------|
F |-9b~~~~~~~~~---9b~~~~~~~~~~~~--9b~~~~~~~~~~~~~-9b~~~-9b~~~~-----|
C |----------------------------------------------------------------|
G |----------------------------------------------------------------|
D |----------------------------------------------------------------|



d |----------------------------------------------------------------|
A |-------------------------------10b---10p8-------8-------8-------|
F |-9bp7---7-------7----------7-9------------9-9-9---7h9-9---7h9---|
C |------9---9-7-9---9-7-9-/9--------------------------------------|
G |----------------------------------------------------------------|
D |----------------------------------------------------------------|



d |----------------------------------------------------------------|
A |-8-10b-\\-------------------------------------------------------|
F |--------------9bp7---7-------7-------------7-9-9b-9b--9---------|
C |----------x/-------9---9-7-9---9-7-9-9-7h9----------------------|
G |----------------------------------------------------------------|
D |----------------------------------------------------------------|


d |----------------------------------------------------------------|
A |----------------------------------------------------------------|
F |-----------------------------------9~~~~~~~~-7-9b---------------|
C |-9b-9b--7-------7-------7-9-9b~~~-------------------------------|
G |----------9-7-9---9-7-9-----------------------------------------|
D |----------------------------------------------------------------|

TOP cifras de Corrosion Of Conformity

  1. Stone Breaker Intro
  2. Albatross
  3. Damned For All Time
  4. Stare Too Long
  5. In The Arms Of God
  6. King Of The Rotten
  7. Señor Limpio
  8. The Snake Has No Head
  9. Albatross Intro
  10. Bottom Feeder

Pela Web