Cifras Web
Crowbar

Slave No More

Crowbar

6 acessos

                   MISFIT/666
VERSE:


|---------------------------------------|
|---------------------------------------|
|---------------------------------------|
|---------------------------------------|
|-8p5-7----7p5-7----8p5-8----8--7--5-3--|
|-------00-------00-------00-6--5--3-1--| 12x



CHORUS:


|----------------------------------|
|----------------------------------|
|----------------------------------|
|----------------------------------|
|-7-8-10-8---7~--7b-----7----------|
|-0--------0---------10----7-7/8~--| 4x



VERSE - 8x


CHORUS - 8x (sustain note on last time)


INTERLUDE:


|-------------------------------------------------------|
|-------------------------------------------------------|
|---------------------------------------------/9--------|
|---------------------------------------2--2--/9--------|
|-10----10----10----10----7-8-8-7-8-7-5-2--2--/7--------|
|----8~----7~----6~----5~-5-6-6-5-6-5-3-0--0------------| 2x

                          _____________


|------------------------------------------------------------|
|------------------------------------------------------------|
|---------------------------------------------/12---10---9---|
|---------------------------------------2--2--/12---10---9---|
|-10----10----10----10----7-8-8-7-8-7-5-2--2--/10----8---7---|
|----8~----7~----6~----5~-5-6-6-5-6-5-3-0--0---------8---7---|

                          _____________


|-------------------------------------------------------|
|-------------------------------------------------------|
|---------------------------------------------/9------\-|
|---------------------------------------2--2--/9------\-|
|-10----10----10----10----7-8-8-7-8-7-5-2--2--/7------\-|
|----8~----7~----6~----5~-5-6-6-5-6-5-3-0--0------------|

                          _____________


VERSE - 4x


CHORUS - 8x


OUTRO - Fades Out

|-----------------------------------------------------------------------|
|-----------------------------------------------------------------------|
|-----------------------------------------------------------------------|
|---------------7/8---10\9---------------------------7/8---9\8---10---9-|
|---------------7/8----8\7---------------------------7/8---9\8----8---7-|
|-0-0-000-0-0-0-5/6-0------0-8p7p5h7p0-0-0-000-0-0-0-5/6-0-7\6-0----0---|

TOP cifras de Crowbar

  1. High Rate Extinction
  2. And Suffer As One
  3. Lasting Dose
  4. New Dawn Intro
  5. Holding Nothing
  6. All I Had
  7. Dead Sun
  8. No Quarter
  9. Like Broken Glass
  10. Slave No More

Pela Web