Cifras Web
Cuca

Hijo Del Lechero

Cuca

8 acessos

INTRO:

IOLE, IOLE, IOLE Í IOLE, IOLE, IO...


E------------------|
A------------------|
D------------------|   X2  (RIFF 1)
G------------------|
B--5-5-5-5-5-|-7-5-|
e--7-7-7-7-7-|-7-7-|



E--0-4-7-------------|
A--------0-4-7-------|
D--------------0-4-7-|  X2  (RIFF 2)
G--------------------|
B--------------------|
e--------------------|



E---
A--5
D--5  (RIFF 3) ASTA KE SE DESVANECE EL SONIDO
G---
B---
e---

EL CORO:


E------------|
A--0-4-------|
D------0-4-0-|    (RIFF 4)
G----------0-|
B------------|
e------------|


(RIFF1)
IOLE IOLE IOLE I IOLE IOLE IOLE IO

RIFF 2
RIFF 1
RIFF 2

RIFF 3
HAY MAMA KE ES LO KE SIENTO KE ES LO KE KOMENTAN KE ES LO KE PRESIENTO?
RIFF 2
FIFF 3
HAY MAMA KE ES...

RIFF 4
HIJO DEL LECHERO
RIFF 4
HIJO DEL LECHERO
RIFF 4
HIJO DEL LECHERO

SOLO..


E---------------------------------------------------------------------------|
A---------------------------------------------------------------------------|
D---------------------------------------------------------------------------|
G---------------------------------------------------------------------------|
B---------------------------------------------------------------------------|
e-5-8-7-5-5-8-7-5-5-8-7-5-5-8-7-5-5-8-7-5-5-8-7-5-5-8-7-5-5-8-7-5-5-5-7-7-8-|



you need to hear the son so you can get it right

Top cifras de Cuca

  1. Matame Antes
  2. Hijo Del Lechero
  3. La Balad
  4. Alcohol Y Rocanrol
  5. El Son Del Dolor

Pela Web