Cifras Web
Demons & Wizards

Beneath These Waves

Demons & Wizards

11 acessos

I've been looking at the site every single day, waiting for them to realease this songs
tabs. And FINALLY theyve arrived. Once again I take no credit for this tab, you can also
find all there other tabs at:

http://*

Notation:

10^        = bend a quarter step.
10b11      = bend a half step.
10b12      = bend a full step.
10b12r10   = bend and release.
[10]12     = pre-bend.
[10]12r10  = pre-bend and release.
{14}       = pick the 14th fret while holding the most 
             previous bend.
       = touch the string above the 17th fret while 
             previous note(s) is(are) still ringing.

10b13*     = tremolo bar bend, from the 10th fret to the 13th fret.
7d4*       = tremolo bar dive, from the 7th fret to the 4th fret. 
12~*       = tremolo bar vibrato.

x   =  mute with fret-hand
*   =  palm mute
X\\ =  pick slide
h   =  hammer-on
p   =  pull-off
~   =  vibrato
t   =  finger tap
/   =  slide up
\   =  slide down
h.  =  natural harmonics
a   =  artificial harmonics
(9) =  ghost note
tm  =  trem picking
tr  =  trill



Tuning: Eb

Riff 1
Guitar 1

eb|---------------------------|
Bb|-0------------0------------|
Gb|-x------------x------------|
Db|-5--------5---4--------4---|
Ab|-7--------7-5-5--------5-3-|
Eb|---------------------------|

               *            *

eb|------------------------------------|
Bb|-0-----------------------0----------|
Gb|-x------------2----------x----------|
Db|-2--------2---2----------5----------|
Ab|-3--------3-0----------0-2----------|
Eb|----------------------------------0-|

               *          *          *

Final time:

eb|--------------------------------------|
Bb|-0-----------------------0------------|
Gb|-x------------2----------x------------|
Db|-2--------2---2----------5------------|
Ab|-3--------3-0----------0-2------------|
Eb|----------------------------------0-0-|

               *          *          * *
   "It's him or me..."

Guitar 2

eb|----------------------------|
Bb|-0--------------------------|
Gb|-x--------------------------|
Db|-5----------------------5---|
Ab|-7----7-7-7-7-7-7-7-7-7-7-5-|
Eb|----------------------------|

         * * * * * * * * *   *

eb|----------------------------|
Bb|-0--------------------------|
Gb|-x--------------------------|
Db|-4----------------------4---|
Ab|-5----5-5-5-5-5-5-5-5-5-5-3-|
Eb|----------------------------|

         * * * * * * * * *   *

eb|----------------------------|
Bb|-0--------------------------|
Gb|-x--------------------------|
Db|-2----------------------2---|
Ab|-3----3-3-3-3-3-3-3-3-3-3-0-|
Eb|----------------------------|

         * * * * * * * * *   *

eb|-----------------------|
Bb|------------0----------|
Gb|-2----------x----------|
Db|-2----------5----------|
Ab|------0-0-0-2----3-5---|
Eb|---------------------0-|

         * * *      * * *

Final time:

eb|-------------------------|
Bb|-------------------------|
Gb|-2-----------------------|
Db|-2----------5------------|
Ab|------0-0-0-2----3-5-----|
Eb|---------------------0-0-|

         * * *      * * * *


Riff 2

eb|-------------------------------|
Bb|-------------------------------|
Gb|-------------------------------|
Db|-5------7-------9------10--9-7-|
Ab|-7------9------10------12-10-9-|
Eb|----0-0----0-0-----0-0---------|

       * *    * *     * *     * *
   "Somewhere deep..."

eb|-------------------------------|
Bb|-------------------------------|
Gb|-------------------------------|
Db|-5------7-------9------10--9-7-|
Ab|-7------9------10------12-10-9-|
Eb|----0-0----0-0-----0-0---------|

       * *    * *     * *     * *
   "...within."

eb|----------------------------------------|
Bb|----------------------------------------|
Gb|----------------------------------------|
Db|-4--------------5---2--------3----3--/5-|
Ab|-5--------5-5-5-7-3-3--------3----3--/5-|
Eb|----------------------------------------|

             * * *   *
   "There is nothing..."


Play Riff 1   "Come all you..."
Play Riff 2   "Somewhere deep..."


Riff 3

eb|------------------------------------|
Bb|------------------------------------|
Gb|------------------------------------|
Db|-------------------5--------5--5----|
Ab|-2--------2--4--5--3--------3--2--5-|
Eb|-0--------0--2--3-----------------3-|

         "A walk through..."

eb|------------------------------------|
Bb|------------------------------------|
Gb|------------------------------------|
Db|-------------------5--------5--5----|
Ab|-2--------2--4--5--3--------3--2--5-|
Eb|-0--------0--2--3-----------------3-|

         "We'll soon cross..."

eb|--------------------------------------|
Bb|--------------------------------------|
Gb|--------------------------------------|
Db|-2--------4--------5--------7----(7)\-|
Ab|-0------0-2----0-2-3----2-3-5----(5)\-|
Eb|------3-------------------------------|

         * *      * *      * *
     "There is one..."

eb|-0----------------------------------|
Bb|-0----------------------------------|
Gb|-x----------------------------------|
Db|-2-----------------5--------5--5----|
Ab|-2--------2--4--5--3--------3--2--5-|
Eb|-0--------0--2--3-----------------3-|

         "A walk through..."

eb|------------------------------------|
Bb|------------------------------------|
Gb|------------------------------------|
Db|-------------------5--------5--5----|
Ab|-2--------2--4--5--3--------3--2--5-|
Eb|-0--------0--2--3-----------------3-|

         "We'll soon cross..."

eb|---------------------------------|
Bb|---------------------------------|
Gb|---------------------------------|
Db|-2--------4--------5--------7----|
Ab|-0------0-2----0-2-3----2-3-5----|
Eb|------3--------------------------|

         * *      * *      * *
      "Beneath these waves..."


Play Riff 1  Solo Rhythm, except use this
for the last bar:
Guitar 1

eb|--------------------------------------|
Bb|-0-----------------------0------------|
Gb|-x------------2----------x------------|
Db|-2--------2---2----------5------------|
Ab|-3--------3-0----------0-2------------|
Eb|--------------------------------------|

               *          *
Guitar 2

eb|-------------------------|
Bb|------------0------------|
Gb|-2----------x------------|
Db|-2----------5------------|
Ab|------0-0-0-2------------|
Eb|-------------------------|

         * * *

Solo

eb|----------|
Bb|----------|
Gb|----------|
Db|----------|
Ab|----------|
Eb|-X\\-17\--|



eb|--------------------------------------------------------|
Bb|--------------------------------------------------------|
Gb|--------------------------------------------------------|
Db|--------------------------------------------------------|
Ab|----------------------------------12-14-14b15r14-12-14~-|
Eb|-12-(12)b14-12-12-12~----12-14-15-----------------------|

                *  *         *  *  *  *

eb|--------------------------------|
Bb|--------------------------------|
Gb|--------------------------------|
Db|--------------------------------|
Ab|-12-14-14b15r14-12-14-12\10-12~-|
Eb|--------------------------------|



eb|---------------------------------------------------------|
Bb|----------------------10--8--7h8--7----------------------|
Gb|-------------------11---------------9-7-9/11\9-7-9-7-9~~-|
Db|-----------------9---------------------------------------|
Ab|-10-12-10\9-10~------------------------------------------|
Eb|---------------------------------------------------------|

        *

eb|----15p12----14p12----15p12----17p12----15p12---|
Bb|-12-------12-------12-------12-------12------12-|
Gb|------------------------------------------------|
Db|------------------------------------------------|
Ab|------------------------------------------------|
Eb|------------------------------------------------|



eb|-12-15-14-12-14-12----12---------------------|
Bb|-------------------15----15-13-15-13-12------|
Gb|----------------------------------------14~~-|
Db|---------------------------------------------|
Ab|---------------------------------------------|
Eb|---------------------------------------------|



eb|----------------------19----17----------------|
Bb|-12--13~~--15\----/15----15-------17-------15-|
Gb|-------------------------------16----16\14----|
Db|----------------------------------------------|
Ab|----------------------------------------------|
Eb|----------------------------------------------|



eb|----------------------------------|
Bb|-------13----12h13p12-------------|
Gb|-14\12----12----------14-12-------|
Db|----------------------------14~~--|
Ab|----------------------------------|
Eb|----------------------------------|


End Solo



Riff 4

eb|----------------------------|
Bb|----------------------------|
Gb|----------------------------|
Db|----------------------------|
Ab|-2------4------5------7-5-4-|
Eb|-0--0-0-2--0-0-3--0-0-5-3-2-|

       * *    * *    * * * * *

eb|----------------------------|
Bb|----------------------------|
Gb|----------------------------|
Db|----------------------------|
Ab|-2------4------5------7-5-4-|
Eb|-0--0-0-2--0-0-3--0-0-5-3-2-|

       * *    * *    * * * * *

eb|---------------------------------------|
Bb|---------------------------------------|
Gb|---------------------------------------|
Db|----------------------------3----3--/5-|
Ab|-5--------5-5-5-7--3--------3----3--/5-|
Eb|-5--------5-5-5-7--3-------------------|

             * * *

Play Riff 2   "Somewhere deep..."
Play Riff 3   "A walk through..."


Riff 5 (Clean)

eb|--------0----------------------|
Bb|----------0--------------------|
Gb|------------0------------------|
Db|------2-------2-----2-----0----|
Ab|----2-------------2-----0------|
Eb|-0--------------0-----2-----3--|



eb|-------------------------------|
Bb|--------3-1--------------------|
Gb|------0-----0-------0-----0----|
Db|----2---------2---2-----0------|
Ab|-3--------------3-----2--------|
Eb|----------------------------3--|



eb|--------0----------------------|
Bb|----------0--------------------|
Gb|------------0------------------|
Db|------2-------2-----2-----0----|
Ab|----2-------------2-----0------|
Eb|-0--------------0-----2-----3--|



eb|-------------------------------|
Bb|--------3-1--------------------|
Gb|------0-----0-------0-----0----|
Db|----2---------2---2-----0------|
Ab|-3--------------3-----2--------|
Eb|----------------------------3--|



eb|-------------------------------|
Bb|--------0--------------0-------|
Gb|------2---2----------0---0-----|
Db|----2-------2------0-------0---|
Ab|-0------------0-2------------2-|
Eb|-------------------------------|



eb|-----------------------------|
Bb|--------3-1------------------|
Gb|------0-----0--------0-------|
Db|----2---------2---4-----4----|
Ab|-3--------------5----------5-|
Eb|-----------------------------|


Repeat Riff 5 a few times and end with open Eb note.

ENJOY! ICED EARTH AND BLIND GUARDIAN PWN YOU! ROCK ON

TOP cifras de Demons & Wizards

  1. Loves Tragedy Asunder Intro
  2. Wicked Witch
  3. The Whistler
  4. Winter Of Souls
  5. Beneath These Waves
  6. Blood On My Hands
  7. Crimson King
  8. Heaven Denies
  9. Fiddler on The Green
  10. Down Where I Am

Pela Web