Cifras Web
Dio

Between Two Hearts

Dio

8 acessos

Fig 1: Acoustic Guitars 
                                                                      
E||----------0---------------0-------|----------0-------------0-----| 
B||------6-----6---6-----6-----6---6-|------6-----6---6-----5-------| 
G||----7---7-----7-----5---5-----5---|----3---3-----3-----3---------| 
D||--0---------------0---------------|--0---------------0-----------| 
A||----------------------------------|------------------------------| 
D||----------------------------------|------------------------------| 
 
 
                                                                   
----------0---------------3p0-----|----------0-------------0-----| 
------6-----6---6-----6-------6---|------6-----6---6-----5-------| 
----7---7-----7-----5---5-------5-|----3---3-----3-----3---------| 
------------------0---------------|--0---------------0-----------| 
----------------------------------|------------------------------| 
--0-------------------------------|------------------------------| 
 
She never breaks .... 
 
                                                                   
----------0---------------0-------|----------0-------------0-----| 
------6-----6---6-----6-----6---6-|------6-----6---6-----5-------| 
----7---7-----7-----5---5-----5---|----3---3-----3-----3---------| 
------------------0---------------|--0---------------0-----------| 
----------------------------------|------------------------------| 
--0-------------------------------|------------------------------| 
 
 
                                                                   
----------0---------------0-------|----------0-------------0-----| 
------6-----6---6-----6-----6---6-|------6-----6---6-----5-------| 
----7---7-----7-----5---5-----5---|----3---3-----3-----3---------| 
------------------0---------------|--0---------------0-----------| 
----------------------------------|------------------------------| 
--0-------------------------------|------------------------------| 
 
 
                                                                       
----------0---------------3p0-----|----------0---------------0-------| 
------6-----6---6-----6-------6---|------6-----6---6-----5-----5---5-| 
----7---7-----7-----5---5-------5-|----3---3-----3-----3---3-----3---| 
--0---------------0---------------|--0---------------0---------------| 
----------------------------------|----------------------------------| 
----------------------------------|----------------------------------| 
 
 
                                                                   
----------0---------------0-------|----------0-------------0-----| 
------6-----6---6-----6-----6---6-|------6-----6---6-----5-------| 
----7---7-----7-----5---5-----5---|----3---3-----3-----3---------| 
--0---------------0---------------|--0---------------0-----------| 
----------------------------------|------------------------------| 
----------------------------------|------------------------------| 
 
Fig 2: Distortion Guitar 
 
                                                                
----------------------------|--------------------------------| 
----------------------------|--------------------------------| 
----------------------------|--------------------------------| 
----------------------------|--------------------------------| 
-----------3-----------5~---|-----------3-------3/5-3--------| 
--0--0-3-5----3--0--0-------|--0--0-3-5----3--0-------6-5-3~-| 
 
 
                                                                  
------------------------------|---------------------------------| 
------------------------------|---------------------------------| 
------------------------------|---------------------------------| 
------------------------------|---------------------------------| 
-----------3-----------3-5-3--|-----------3-------3/5-3---------| 
--0--0-3-5----3--0--0---------|--0--0-3-5----3--0-------6-5-3-5-| 
 
 
Fig 3: Distortion Guitar 
                                                                                
-------------------------|--------------------------|-------------------------| 
------------------3------|--------------------------|------------------3------| 
------------------2------|--------------------------|------------------2------| 
------------------0------|--------------------3-----|------------------0------| 
--5----3----0--0---------|--5----3----0---3-5----5~-|--5----3----0--0---------| 
--5----3----0--0-----3b0-|--5----3----0-0-----------|--5----3----0--0-----3b0-| 
 
It´s between two Hearts ... 
 
                                                              
-------------------|--------------------|-------------------| 
-------------------|--3------------3----|-------------------| 
-------------------|--2------------2----|--0----------------| 
--5----------------|--0------------0----|--0----------------| 
--5----------------|--0------------0----|-------------------| 
--5----------------|--0-----------------|--0----------------| 
 
 
                                                                   
---------0---------0-----|--------------------| 
--3---------3--------3---|--------------------| 
--3------------3-------3-|--------------------| 
-------------------------|--0-----------------| 
-------------------------|--0--------x--------| 
--0----------------------|--0-----------------| 
 
Fig 1: Palm muted Guitar 
 
                                                                     
----------0---------------0-------|----------0-------------0-------| 
------6-----6---6-----6-----6---6-|------6-----6---6-----5---------| 
----7---7-----7-----5---5-----5---|----3---3-----3-----3-----------| 
--0---------------0---------------|--0---------------0---------x---| 
----------------------------------|------------------------------x-| 
----------------------------------|--------------------------------| 
 
Fig 4: Distortion Guitar 
 
                                                                                
--1---1-----------------|----------0---------0-----0---|-----------------------| 
--3---3-------6-----6---|------6-----6---6---5-----5---|--------------6-----6--| 
--2---2-------5-----5---|----3---3-----3-----3-0-0-3---|----7---------5-----5--| 
--0-----0-0-0---0-0---0-|--0---------------0-----------|-0--7---0-0-0---0-0----| 
--0---------------------|----------------------------B-|-0--5------------------| 
------------------------|----------------------------3-|-----------------------| 
 
We never have to ask .... 
 
                                                                                
----------0-------------0-------|----------------------|--------------------------| 
------6-----6---6-----5---------|----3--------6-----6--|-6--6---------5-----5-----| 
----3---3-----3-----3-----------|----2--------5-----5--|-3--3---------3-----3-----| 
--0---------------0-----------B-|-0--0--0-0-0---0-0----|-0--0---0-0-0---0-0-------| 
--------------------------------|-0--------------------|-----------------------P--| 
--------------------------3-0-3-|----------------------|----------------------3-0-| 
 
 
                                                                     
------------------------|------------------------|------------------| 
-----3--------6-----6---|--6--6--------5-----5---|------------------| 
-----2--------5-----5---|--3--3--------3-----3---|------------------| 
--0--0--0-0-0---0-0---0-|--0--0--0-0-0---0-0---x-|------------------| 
--0---------------------|------------------------|------------------| 
------------------------|------------------------|------------------| 
 
Fig 3: 
 
----------------------------|--------------------------------| 
----------------------------|--------------------------------| 
----------------------------|--------------------------------| 
----------------------------|--------------------------------| 
-----------3-----------5~---|-----------3-------3/5-3--------| 
--0--0-3-5----3--0--0-------|--0--0-3-5----3--0-------6-5-3~-| 
 
 
                                                                  
------------------------------|---------------------------------| 
------------------------------|---------------------------------| 
------------------------------|---------------------------------| 
------------------------------|---------------------------------| 
-----------3-----------3-5-3--|-----------3-------3/5-3---------| 
--0--0-3-5----3--0--0---------|--0--0-3-5----3--0-------6-5-3-5-| 
 
Fig 4: 
 
                                                                                
-------------------------|--------------------------|-------------------------| 
------------------3------|--------------------------|------------------3------| 
------------------2------|--------------------------|------------------2------| 
------------------0------|--------------------3-----|------------------0------| 
--5----3----0--0---------|--5----3----0---3-5----5~-|--5----3----0--0---------| 
--5----3----0--0-----3b0-|--5----3----0-0-----------|--5----3----0--0-----3b0-| 
 
It´s between two Hearts 
 
                                                               
-------------------|---------------------|-------------------| 
-------------------|---------------------|--3----------------| 
-------------------|--7-------------7----|--0----------------| 
--5----------------|--6---------------6--|--0----------------| 
--5----------------|--5------------------|-------------------| 
--5----------------|---------------------|-------------------| 
 
 
                                                                
--0------0------------|--------------------| 
--3--------3----------|--3-----------------| 
--3------------3------|--2-----------------| 
----------------------|--0------------x----| 
----------------------|--------------------| 
----------------------|--------------------| 
 
Fig 5: Distorton Guitar 
 
--------------------------------|------------------| 
--------------3-----------------|------------------| 
--------------2-----------------|-----10--------10-| 
--------------0-----------------|-----10--------10-| 
--------------0-----------------|------------------| 
--5-3-5-6-5-3-0--5-3-5-6-5-3-5--|-0-0------0-0-----| 
 
Put on your party faces 
 
                                                     
--------------------------------|------------------| 
--------------3-----------------|------------------| 
--------------2-----------------|------2-2-----5---| 
--------------0-----------------|------0-0-----5---| 
--------------0-----------------|-----------7--3---| 
--5-3-5-6-5-3-0--5-3-5-6-5-3-5--|-0-0--------------| 
 
 
                                                     
--------------------------------|----------H---------| 
--------------3-----------------|------3--1-3--------| 
--------------2-----------------|------2------1-0----| 
--------------0-----------------|------0----------3--| 
--------------0-----------------|--------------------| 
--5-3-5-6-5-3-0--5-3-5-6-5-3-5--|-0-0----------------| 
 
 
                                                                        
--------------------------------|--------------------| 
--------------------------------|--------------------| 
--------------------------------|-3--3---3--3---3----| 
--------------------------------|-3--3---3--3---3----| 
--------------------------------|-1--1---1--1---1----| 
--5-3-5-6-5-3-0--5-3-5-6-5-3-0--|--------------------| 
 
 
Solo: 
 
                                                             
---------------------| 
----------------8-11-| 
---------------------| 
---------------------| 
---------------------| 
---------------------| 
 
 
                                                                       
-----------------------|-------------------8-------------------------| 
--11b---11b-------x----|--11r-11-9p8-9p8b8---11p8--------------------| 
-----------------------|--------------------------10p8---------------| 
-----------------------|-------------------------------10-8-10-------| 
-----------------------|-----------------------------------------13--| 
-----------------------|---------------------------------------------| 
 
 
                               
-----------------------------| 
-----------------------------| 
--8-------------8------------| 
-----10-8-10~------10--------| 
----------------------8-6~---| 
-----------------------------| 
 
 
                                                     
--------8------------------------------------------| 
------8---11p8-------------------------------------| 
----8----------10p8-10p8---------------------------| 
-------------------------8-------------------------| 
--x------------------------10p8\6-8-6--------6-----| 
--------------------------------------10-8-5-------| 
 
 
                                                                               
----------------------------|--12r-x-12r-x-12r-x-12r12p10----10------------x-| 
--13r---13b-13r-10--13b-----|------x-----x-----x----------13----13r13r13-3-x-| 
----------------------------|------------------------------------------------| 
----------------------------|------------------------------------------------| 
----------------------------|------------------------------------------------| 
----------------------------|------------------------------------------------| 
 
 
                              
----------------------------| 
--13b---------17-17-17-17---| 
----------------------------| 
----------------------------| 
----------------------------| 
----------------------------| 
 
 
                                                                                 
-----10----------------10----------------12h13p10------------------------------- 
--13b---13p10----10h13----13p10----10h13----------13p10----10h13-------15------- 
--------------12----------------12----------------------12-------10h12----12\10- 
-------------------------------------------------------------------------------- 
-------------------------------------------------------------------------------- 
-------------------------------------------------------------------------------- 
 
 
                                                
-------------------------13/15-12-------------| 
-----------------------x----------13---15b----| 
--12b---10b--------------------------x--------| 
--12b---10b---12-10-12------------------------| 
----------------------------------------------| 
----------------------------------------------| 
 
 
                                                                         
--5------------------------------| 
------------------8r8-6-----8----| 
------7-5---------------7-7------| 
----------5-3-5-5----------------| 
---------------------------------| 
---------------------------------| 
 
 
 
 
Fig 1: Acoustic Guitar 
                                                       
----------0---------------0-------| 
------6-----6---6-----6-----6---6-| 
----7---7-----7-----5---5-----5---| 
--0---------------0---------------| 
----------------------------------| 
----------------------------------| 
 
Another way to spend ... 
 
                                                                   
----------0-------------0-----|----------0---------------0-------| 
------6-----6---6-----5-------|------6-----6---6-----6-----6---6-| 
----3---3-----3-----3---------|----7---7-----7-----5---5-----5---| 
--0---------------0-----------|--0---------------0---------------| 
------------------------------|----------------------------------| 
------------------------------|----------------------------------| 
 
 
                                                                       
----------0---------------0-------|----------0---------------3p0-----| 
------6-----6---6-----5-----5---5-|------6-----6---6-----6-------6---| 
----3---3-----3-----3---3-----3---|----7---7-----7-----5---5-------5-| 
--0---------------0---------------|--0---------------0---------------| 
----------------------------------|----------------------------------| 
----------------------------------|----------------------------------| 
 
 
                                                                   
----------0-------------0-----|----------0---------------0-------| 
------6-----6---6-----5-------|------6-----6---6-----6-----6---6-| 
----3---3-----3-----3---------|----7---7-----7-----5---5-----5---| 
--0---------------0-----------|--0---------------0---------------| 
------------------------------|----------------------------------| 
------------------------------|----------------------------------| 
 
 
                                                                   
----------0-------------0-----|----------0---------------0-------| 
------6-----6---6-----5-------|------6-----6---6-----6-----6---6-| 
----3---3-----3-----3---------|----7---7-----7-----5---5-----5---| 
--0---------------0-----------|--0---------------0---------------| 
------------------------------|----------------------------------| 
------------------------------|----------------------------------| 
 
 
                                                                      
----------0-------------0-----| 
------6-----6---6-----5-------| 
----3---3-----3-----3---------| 
--0---------------0-----------| 
------------------------------| 
------------------------------| 
 
 
 
Fig 2: Distortion Guitar 
                                                                    
----------------------------| 
----------------------------| 
----------------------------| 
----------------------------| 
-----------3-----------5~---| 
--0--0-3-5----3--0--0-------| 
 
 
                                                                 
--------------------------------|------------------------------| 
--------------------------------|------------------------------| 
--------------------------------|------------------------------| 
--------------------------------|------------------------------| 
-----------3-------3/5-3--------|-----------3-----------3-5-3--| 
--0--0-3-5----3--0-------6-5-3~-|--0--0-3-5----3--0--0---------| 
 
 
                               Fig 3: Distortion Guitar                          
-----------------------------|-------------------------| 
-----------------------------|------------------3------| 
--------------------------x--|------------------2------| 
--------------------------x--|------------------0------| 
-----------3-------3-0-3-----|--5----3----0--0---------| 
--0--0-3-5----3--------------|--5----3----0--0-----3b0-| 
 
 
                              It´s between ... 
 
                                                                              
--------------------------|-------------------------|-----------------------| 
--------------------------|------------------3------|-----------------------| 
--------------------------|------------------2------|-----------------------| 
--------------------3-----|------------------0------|--5-------x-5----5--x--| 
--5----3----0---3-5----5~-|--5----3----0--0---------|--5---------5----5--x--| 
--5----3----0-0-----------|--5----3----0--0-----3b0-|--5---------5----------| 
 
 
                                                                               
-------------------------|-------------------------|-------------------------| 
------------------3------|-------------------------|------------------3------| 
------------------2------|-------------------------|------------------2------| 
------------------0------|-------------------3-----|------------------0------| 
--5----3----0--0---------|--5----3-----5-3-5----5--|--5----3----0--0---------| 
--5----3----0--0-----3b0-|--5----3-----------------|--5----3----0--0-----3b0-| 
 
 
                                                                               
-------------------|-------------------| 
-------------------|-------------------| 
-------------------|--7----------------| 
--5----------------|--6----------------| 
--5----------------|--5----------------| 
--5----------------|--0----------------| 
 
 
Outro: Acoustic Guitar Fig 1 
 
                                                                   
----------0---------------0-------|----------0-------------0-----| 
------6-----6---6-----6-----6---6-|------6-----6---6-----5-------| 
----7---7-----7-----5---5-----5---|----3---3-----3-----3---------| 
--0---------------0---------------|--0---------------0-----------| 
----------------------------------|------------------------------| 
----------------------------------|------------------------------| 
 
 
                                                                   
----------0---------------0-------|----------0-------------0-----| 
------6-----6---6-----6-----6---6-|------6-----6---6-----5-------| 
----7---7-----7-----5---5-----5---|----3---3-----3-----3---------| 
--0---------------0---------------|--0---------------0-----------| 
----------------------------------|------------------------------| 
----------------------------------|------------------------------| 
 
 
                                                                   
----------0---------------0-------|----------0-------------0-----| 
------6-----6---6-----6-----6---6-|------6-----6---6-----5-------| 
----7---7-----7-----5---5-----5---|----3---3-----3-----3---------| 
--0---------------0---------------|--0---------------0-----------| 
----------------------------------|------------------------------| 
----------------------------------|------------------------------| 
 
 
                                                                    
----------0---------------0-------|----------0-------------0-----|| 
------6-----6---6-----6-----6---6-|------6-----6---6-----5-------|| 
----7---7-----7-----5---5-----5---|----3---3-----3-----3---------|| 
--0---------------0---------------|--0---------------0-----------|| 
----------------------------------|------------------------------|| 
----------------------------------|------------------------------||

TOP cifras de Dio

  1. This Is Your Life
  2. As Long As It's Not About Love
  3. One Night In The City
  4. Sacred Heart
  5. Hungry For Heaven Intro
  6. Dream Evil
  7. Night People
  8. Scream
  9. Mystery
  10. Sunset Superman

Pela Web