Cifras Web
Eureka

Te Encontrar

Eureka

8 acessos

A              
Eu queria você
F#m
Aqui bem perto de mim
D                
Tudo parece bem
E
Mais sem você

Não sei mais o que fazer

A
Eu tentava
F#m
Me espelhava na flor
D                E
No que você me dizia fazer

B
Em sonhos 
     F#m
te encontro
   E
Me fazendo te amar
B            F#m  
Mais basta o dia chega
     D          E
E eu só quero saber 

como vou te encontrar...

A                  F#m
Queria ao menos ver

O que eu vou fazer 
D            E
Pra te encontrar...
A                 F#m
Eu prometo que vou
               D
Sempre aqui estar
                 E
Quando você precisar

SOLO

e|-----5---5------5--7-7^9^7-5--------5---5------5-----------------------5----5--

B|-5^7---7----5^7-----------------5^7---7----5^7---7-5-----------5---5-7----7----
G|-----------------------------------------------------6-4---4-6---6-------------
D|---------------------------------------------------------6---------------------
A|-------------------------------------------------------------------------------
E|-------------------------------------------------------------------------------


e|-----5--7-7^9^7-5---5--7--9---7--9--10---9--10--12~~~~~~~----------------------

B|-5^7---------------------------------------------------------------------------
G|-------------------------------------------------------------------------------
D|-------------------------------------------------------------------------------
A|-------------------------------------------------------------------------------
E|-------------------------------------------------------------------------------

A              
Eu queria você
F#m
Aqui bem perto de mim
D                
Tudo parece bem
E
Mais sem você

Não sei mais o que fazer

A
Eu tentava
F#m
Me espelhava na flor
D                E
No que você me dizia fazer

B
Em sonhos 
     F#m
te encontro
   E
Me fazendo te amar
B            F#m  
Mais basta o dia chega
     D          E
E eu só quero saber 

como vou te encontrar...

A                  F#m
Queria ao menos ver

O que eu vou fazer 
D            E
Pra te encontrar...
A                 F#m
Eu prometo que vou
               D
Sempre aqui estar
                 E
Quando você precisar
     A
aaaaa

TOP cifras de Eureka

  1. Juiz Ladrão
  2. O Seu Lugar
  3. Fotos e Retratos
  4. Menina
  5. Te Encontrar
  6. Pensando Em Você

Pela Web