Cifras Web
Inmigrantes

Babilonia

Inmigrantes

8 acessos

(intro)

E |---------------------------1----------------5---------10-10-10-10---------5-------10-10-10-10-----
B |---------------------------3----------------6---------10-10-10-10---------6-------10-10-10-10-----
G |---------------------------2----------------7---------10-10-10-10---------7-------10-10-10-10-----
D |77777777----------7-7-7------------10--10------10-10---------------3-3-3-----3-3-3----------------
A|77777777 4x ---------0------- 2x -7--7---7----7--7--7---------------------------------------------
E |55555555--------5--5----------------------------------------------1-1-1-----1-1-1-----------------


E |--------------------------------------------------------------------------------------------------
B |--------------------------------------------------------------------------------------------------
G |--------------------------------------------------------------------------------------------------
A |--------------------------------------------------------------------------------------------------
E |0-1-3-1-0-- 2x -----------------------------------------------------------------------------------


(notas em riff)

A
Esta vez
       C
nuestro viaje
B        E
va a ser eterno
A            C
paraíso en la mente
    B      E      D C Bm
y el cuerpo en el infierno


E |---------1-----------------
B |---------3-----------------
G |---------2-----------------
D |--7-7-7------7-7-----------
A |-----0----------0--7-5-3-2-
E |-5-5--------5-5------------


A
Quiero ver
   C
tu sonrisa
B        E
de barrio bajo
A
quiero ver
      C
en tus ojos
B       E  D  C Bm
tu lado suburbano
C
Hoy

C
Soy de la generación
corto clavos con mi dios
A
irónico
babilónico
C
soy de la generación
nuestro tango
y nuestro amor
   A G F#      A/-7-5-3-2
mirándonos

(intro)

A
Quiero estar
       C
en tus calles
     B   E
por un segundo
A           C
recordar carnavales
B          E  D C Bm E D C  Bm
soplar el humo que nubló tu mundo

C
Soy de la generación
corto clavos con mi dios
A
irónico
babilónico
C
soy de la generación
nuestro tango
y nuestro amor
A G F#
mirándonos

(solo)  C G

C
Soy de la generación
inmigrante el corazón
G
irónico
babilónico
C
soy de la generación
hoy me quedo en libertad
A     G   F#
Te digo adiós
A      G  F#
Me voy de vos
A      G  F#
Sin más que amor.

TOP cifras de Inmigrantes

  1. Graffiti
  2. Babilonia
  3. Golpe de Suerte
  4. El Alma Se Llenó
  5. Nuevo Trip
  6. Una Chica de Ayer
  7. Preciados

Pela Web