Cifras Web
Mike Pinto

Tricky Nicky

Mike Pinto

23 acessos

  TRICKY NICKY
http://*


e------3-x-3----4-x-4-----6-x-6-----3-x-3---|
B------4-x-4----4-x-4-----8-x-8-----3-x-3---|
G------5-x-5----5-x-5-----8-x-8-----4-x-4---| INTRO/VERSE
D--------x--------x---------x---------x-----|
A---3----x--------x----6----x---------x-----|
E--------x---4----x---------x----3----x-----|



e------------------------------------------------|
B------------------------------------------------|
G---5--5-----------------------------------------|  PLAY 2X
D--------5---5-6666-3-5---5---5----------6-5-----|
A---------------------------6-----6-8888---------|
E------------------------------------------------|


e------------------------------------------------|
B------------------------------------------------|
G------5---7-8---7HP8--5-------------------------|  PLAY 2X
D---5---------------------5-6-6-8-6-5------------|
A------------------------------------------------|
E------------------------------------------------|

TOP cifras de Mike Pinto

  1. Tricky Nicky
  2. Backburner
  3. Chilean Lover
  4. Full Speed
  5. Ill Let You In

Pela Web