Cifras Web
Rebelution

Dubzilla

Rebelution

18 acessos

G|-----------------------------|
D|-----------------------------| 
A|--------------5---7-5-7-8-7--| 
E|--5-7-8-7-7-8---8------------| 
B|-----------------------------|

G|---------------------------------|
D|---------------------------------|
A|---------7-7-----5-5-------------|
E|-5-5-5-5-----8-8-----7-7-8-8-7-7-|
B|---------------------------------|

TOP cifras de Rebelution

  1. Meant To Be (feat. Jacob Hemphill Of Soja)
  2. Heart Like a Lion
  3. Safe And Sound
  4. Attention Span
  5. Change The System
  6. Feeling Alright Intro
  7. Dubzilla
  8. Suffering
  9. Meant To Be
  10. Bump

Pela Web