Cifras Web
Stars

My Favourite Book

Stars

8 acessos

   (Tabbed by w7w7w7)


Verse
G|-----------------------------------------------------|
D|------------------------6----------------------------|
A|-----6---4---8-------6---4---8-6-----6--34---8-------|
E|-4---------------4---------------4-------------------|



Chorus
G|-----------------------------------------------------|
D|------------------8---6---4---3----------------------|
A|--66--6---66--64-6---6---4---4-----------------------|
E|-----6---6---6---------------------------------------|

G|-----------------------------------------------------|
D|-----------------------------------------------------|
A|-644--4--4-------------------------------------------|
E|-----4----023464244--4--244--4-----------------------|



Bridge
G|-----------------------------------------------------|
D|----8-------6-------4--------------------------------|
A|-----------------------------------------------------|
E|-666-6---444-4---222-2---2220222---------------------|

TOP cifras de Stars

  1. Life Effect
  2. Night Starts Here
  3. Elevator Love Letter
  4. Big Fight
  5. Set Yourself On Fire
  6. Ageless Beauty
  7. Dont Be Afraid To Sing
  8. Soft Revolution
  9. Reunion
  10. Take Me To The Riot

Pela Web