Cifras Web
Stars

Petite Mort

Stars

7 acessos

(Tabbed by w7w7w7)





Verse
G|-----------------------------------------------------------------------|
D|-------4-6------------------7-9-----------4-6--------------------------|
A|-7XX7------6-----------5-5----------7XX7------6-----------5-5----------|
E|-------------4/--7XX7---------------------------4/--7XX7---------------|



Chorus
G|-----------------------------------------------------------------------|
D|-------------9----9---9----9----------6-7--7--7-6-4-6------------------|
A|-7XX7-7-9-11---11-------11---11--9-X9----------------------------------| x4
E|-----------------------------------------------------------------------|



Bridge
G|-----------------------------------------------------------------------|
D|-------------------------------------------------------------7-9-------|
A|-7---7---7---7-----------------------------------5---5---5-------------| x2
E|-----------------4---4---4---4---7---7---7---7-------------7-----------|


Verse
Chorus
Bridge x4

TOP cifras de Stars

  1. Life Effect
  2. Night Starts Here
  3. Elevator Love Letter
  4. Big Fight
  5. Set Yourself On Fire
  6. Ageless Beauty
  7. Dont Be Afraid To Sing
  8. Soft Revolution
  9. Reunion
  10. Take Me To The Riot

Pela Web