Cifras Web
Wolf Parade

Ill Believe In Anything

Wolf Parade

5 acessos

Album:  Apologies to the Queen Mary
Tuning: Standard

This is just the guitar part.  
There are a lot of layers on the song so I'm not sure if I have everything.

The riff on the high notes remains consistant through the entire song.
The bass notes do change however.

Intro: repeat 2x
(after keyboards and drums come in) (00:17)

e----5--3--------0-----------0-----------0----|
b-------------------3-----------3-----------1-|
g---------------------------------------------|
d---------------------------------------------|
a-3--3--3--3--3--3--3--3--3--3--3--3--3--3--3-|
E---------------------------------------------|


"Give me your eyes, I need the sunshine" (00:22)

e----5--3--------0-----------0-----------0----|
b-------------------3-----------3-----------1-|
g---------------------------------------------|
d---------------------------------------------|
a-3--3--3--3--3--3--3--3--3--3--3--3--3--3--3-|
E---------------------------------------------|

"Give me your eyes, I need the sunshine" 

e----5--3--------0-----------0-----------0----|
b-------------------3-----------3-----------1-|
g---------------------------------------------|
d---------------------------------------------|
a-3--3--3--3--3--3--3--3--3--3--3--3--3--3--3-|
E---------------------------------------------|

"Your blood, your bones, your voice, and your ghost" (00:32)

e----5--3--------0-----------0-----------0--------|
b-------------------3-----------3-----------1-----|
g-2--2--2--2--------------------------------------|
d-------------2--2--2--2--3--3--3--3--------------|
a-------------------------------------2--2--2--2--|
E-------------------------------------------------|

"We've both been a very brave, walk around with both legs" (00:42)
e----5--3--------0-----------0-----------0----|
b-------------------3-----------3-----------1-|
g---------------------------------------------|
d---------------------------------------------|
a-3--3--3--3--3--3--3--3--3--3--3--3--3--3--3-|
E---------------------------------------------| 
"Fight the scary day, we both pulled the tricks out of our sleeves" (00:47)

e----5--3--------0-----------0-----------0----|
b-------------------3-----------3-----------1-|
g---------------------------------------------|
d---------------------------------------------|
a-3--3--3--3--3--3--3--3--3--3--3--3--3--3--3-|
E---------------------------------------------|

"I'll believe in anything and you'll believe in anything" (00:52)

e----5--3--------0-----------0-----------0--------|
b-------------------3-----------3-----------1-----|
g-2--2--2--2--------------------------------------|
d-------------2--2--2--2--3--3--3--3--------------|
a-------------------------------------2--2--2--2--|
E-------------------------------------------------|



e----5--3--------0-----------0-----------0--------|
b-------------------3-----------3-----------1-----|
g-------------------------------------------------|
d-------------------------------------------------|
a-3--3--3--3--3--3--3--3--3--3--3--3--3--3--3-----|
E-------------------------------------------------|

"Said, i'll believe in anything and you'll believe in anything" (01:02)

e----5--3--------0-----------0-----------0--------|
b-------------------3-----------3-----------1-----|
g-2--2--2--2--------------------------------------|
d-------------2--2--2--2--3--3--3--3--------------|
a-------------------------------------2--2--2--2--|
E-------------------------------------------------|



e----5--3--------0-----------0-----------0--------|
b-------------------3-----------3-----------1-----|
g-------------------------------------------------|
d-------------------------------------------------|
a-3--3--3--3--3--3--3--3--3--3--3--3--3--3--3-----|
E-------------------------------------------------| (intro riff play 2x)

"If I could get the fire out from the wire  (01:17)
I'd share a life and you'd share a life"

e----5--3--------0-----------0-----------0--------|
b-------------------3-----------3-----------1-----|
g-------------------------------------------------|
d-------------------------------------------------|
a-3--3--3--3--3--3--3--3--3--3--3--3--3--3--3-----|
E-------------------------------------------------|

"If I could get the fire out from the wire  (01:22)
I'd share a life and you'd share a life"

e----5--3--------0-----------0-----------0--------|
b-------------------3-----------3-----------1-----|
g-------------------------------------------------|
d-------------------------------------------------|
a-3--3--3--3--3--3--3--3--3--3--3--3--3--3--3-----|
E-------------------------------------------------|

"If I could get the fire out from the wire  (01:27)
I'd take you where noooooooooooooooooooooooooo-"

e----5--3--------0-----------0-----------0--------|
b-------------------3-----------3-----------1-----|
g-------------------------------------------------|
d-------------------------------------------------|
a-3--3--3--3--3--3--3--3--3--3--3--3--3--3--3-----|
E-------------------------------------------------|

"-body knows you and nobody gives a damn" (01:32)

e----5--3--------0-----------0-----------0--------|
b-------------------3-----------3-----------1-----|
g-------------------------------------------------|
d-------------2--2--2--2--3--3--3--3--------------|
a-0--0--0--0--------------------------2--2--2--2--|
E-------------------------------------------------|



e----5--3--------0-----------0-----------0--------|
b-------------------3-----------3-----------1-----|
g-------------------------------------------------|
d-------------------------------------------------|
a-3--3--3--3--3--3--3--3--3--3--3--3--3--3--3-----|
E-------------------------------------------------|

"I said nobody knows you and nobody gives a damn"

e----5--3--------0-----------0-----------0--------|
b-------------------3-----------3-----------1-----|
g-------------------------------------------------|
d-------------------------------------------------|
a-0--0--0--0--------------------------2--2--2--2--|
E-------------0--0--0--0--1--1--1--1--------------|



e----5--3--------0-----------0-----------0--------|
b-------------------3-----------3-----------1-----|
g-------------------------------------------------|
d-------------------------------------------------|
a-3--3--3--3--3--3--3--3--3--3--3--3--3--3--3--3--|
E-------------------------------------------------|



e----5--3--------0-----------0-----------0--------|
b-------------------3-----------3-----------1-----|
g-------------------------------------------------|
d-------------------------------------------------|
a-3--3--3--3--3--3--3--3--3--3--3--3--3--3--3--3--|
E-------------------------------------------------|

"And I could take another hit for you (01:57)
And I could take away the trips from you"

e----5--3--------0-----------0-----------0--------|
b-------------------3-----------3-----------1-----|
g-------------------------------------------------|
d-3--3--3--3--3--3--3--3--5--5--5--5--5--5--5--5--|
a-------------------------------------------------|
E-------------------------------------------------|

"And I could take away the salt from your eyes
Take away skin and salt in you"

e----5--3--------0-----------0-----------0--------|
b-------------------3-----------3-----------1-----|
g-------------------------------------------------|
d-2--2--2--2--2--2--2--2--3--3--3--3--3--3--3--3--|
a-------------------------------------------------|
E-------------------------------------------------|

"And I could give you my apologies
By handing over my neologies"

e----5--3--------0-----------0-----------0--------|
b-------------------3-----------3-----------1-----|
g-------------------------------------------------|
d-------------------------------------------------|
a-------------------------------------------------|
E-1--1--1--1--1--1--1--1--3--3--3--3--3--3--3--3--|

"And I could take away your shaky knees
And I could give you all the olive trees"

e----5--3--------0-----------0-----------0--------|
b-------------------3-----------3-----------1-----|
g-------------------------------------------------|
d-------------------------------------------------|
a-------------------------------------------------|
E-0--0--0--0--0--0--0--0--1--1--1--1--1--1--1--1--|

"And look at the trees and look at my face 
and look at a place far away from here"

e----5--3--------0-----------0-----------0--------|
b-------------------3-----------3-----------1-----|
g-------------------------------------------------|
d-------------------------------------------------|
a-------------------------------------------------|
E-3--3--3--3--3--3--3--3--3--3--3--3--3--3--3--3--|

(02:23)

e-------------------------------|
b-------------------------------|
g-5--------5--------5--------5--|
d-------------------------------|
a-3--------3--------3--------3--|
E-------------------------------|

"Give me your eyes, I need the sunshine" (02:28)

e-------------------------------|
b-------------------------------|
g-5--------5--------5--------5--|
d-------------------------------|
a-3--------3--------3--------3--|
E-------------------------------|

"Give me your eyes, I need the sunshine" (02:33)

e-------------------------------|
b-------------------------------|
g-5--------5--------5--------5--|
d-------------------------------|
a-3--------3--------3--------3--|
E-------------------------------|

"Your blood, your bones, your voice, and your ghost" (02:38)

e-------------------------------------------|
b-------------------------------------------|
g-------------9--9--------10-10--------4--4-|
d----7--7-----------------------------------|
a-------------7--7--------8--8---------2--2-|
E----5--5-----------------------------------|

"We've both been a very brave, walk around with both legs"

e-------------------------------|
b-------------------------------|
g-5--------5--------5--------5--|
d-------------------------------|
a-3--------3--------3--------3--|
E-------------------------------|

"Fight the scary day, we both pulled the tricks out of our sleeves"

e-------------------------------|
b-------------------------------|
g-5--------5--------5--------5--|
d-------------------------------|
a-3--------3--------3--------3--|
E-------------------------------|

"I'll believe in anything and you'll believe in anything"

e-------------------------------------------|
b-------------------------------------------|
g-------------9--9--------10-10--------4--4-|
d----7--7-----------------------------------|
a-------------7--7--------8--8---------2--2-|
E----5--5-----------------------------------|



e-------------------------------|
b-------------------------------|
g-5--------5--------5--------5--|
d-------------------------------|
a-3--------3--------3--------3--|
E-------------------------------|

"If I could take the fire out from the wire  
I'd share a life and you'd share a life"

e---------------------------------------|
b---------------------------------------|
g-5-5-5-5-5-5-5-5-5-5-5-5-5-5-5-5-5-5-5-|
d---------------------------------------|
a-3-3-3-3-3-3-3-3-3-3-3-3-3-3-3-3-3-3-3-|
E---------------------------------------|

"If I could take the fire out from the wire  
I'd share a life and you'd share a life"

e---------------------------------------|
b---------------------------------------|
g-5-5-5-5-5-5-5-5-5-5-5-5-5-5-5-5-5-5-5-|
d---------------------------------------|
a-3-3-3-3-3-3-3-3-3-3-3-3-3-3-3-3-3-3-3-|
E---------------------------------------|

"If I could take the fire out from the wire  
I'd take you where noooooooooooooooooooooooooo-"

e-------------------------------------------------|
b-------------------------------------------------|
g-------------------------------------------------|
d---5/7----5/7----5/7----5/7----------------------|
a-------7------7------7-------7-------------------|
E-------------------------------------------------|

"-body knows you and nobody gives a damn" 

e-------------------------------------------|
b-------------------------------------------|
g-------------9--9--------10-10--------4--4-|
d----7--7-----------------------------------|
a-------------7--7--------8--8---------2--2-|
E----5--5-----------------------------------|



e-------------------------------|
b-------------------------------|
g-5--------5--------5--------5--|
d-------------------------------|
a-3--------3--------3--------3--|
E-------------------------------|

"Said, nobody knows you and nobody gives a damn" 

e-------------------------------------------|
b-------------------------------------------|
g-------------9--9--------10-10--------4--4-|
d----7--7-----------------------------------|
a-------------7--7--------8--8---------2--2-|
E----5--5-----------------------------------|



Outro: 
(03:42) (played throughout rest of song)
e----------------------------|
b---10--8--------------------|
g----------9--7--9--7--9-----|
d-------------------------10-|
a----------------------------|
E----------------------------|

Top cifras de Wolf Parade

  1. Dear Sons And Daughters Of Hungry Ghosts
  2. Grounds For Divorce
  3. Its A Curse
  4. Modern World Solo
  5. Same Ghost Every Night
  6. Ill Believe In Anything
  7. Shine A Light
  8. Modern World

Pela Web