Cifras Web
Alexisonfire

Born and Raised

Alexisonfire

11 acessos

(intro)


-------------33333333----------11111111--------    --------|
----11111111-33333333----------11111111--------    ---1----|
----22222222-------------------22222222--------    ---2----|
----22222222----------22222222-33333333--------(2x)---2----|
-------------22222222-22222222-33333333--------    --------|
-------------------------------11111111--------    --------|


(verso)

All blossoms die in the light of our new culture...

-------333----1111--------
----11-333----1111--------
----22--------------------
----22-----22-3333--------
-------222-22-3333-------- (3x)
--------------------------



-------333----------------
----11-333----------------
----22--------2-2-2-2-0---
----22-----22-----------2-
-------222-22-------------
--------------------------


I have lost all direction...

-------------33333333----------11111111--------
----11111111-33333333----------11111111--------
----22222222-------------------22222222--------
----22222222----------22222222-33333333-------- (2x)
-------------22222222-22222222-33333333--------
-------------------------------11111111--------


Escape, escape...

----2222222222---1111111111----
----3333333333-1-1111111111----
----2222222222-2-2222222222----
---------------2-3333333333----
-----------------3333333333----
-----------------1111111111----



----2222222222---11111-33333---
----3333333333-1-11111-33333---
----2222222222-2-22222---------
---------------2-33333---------
-----------------33333-22222---
-----------------11111---------


(refrão)

We were born and raised (And raised)...

-------------33333333----------11111111--------    --------|
----11111111-33333333----------11111111--------    ---1----|
----22222222-------------------22222222--------    ---2----|
----22222222----------22222222-33333333--------(2x)---2----|
-------------22222222-22222222-33333333--------    --------|
-------------------------------11111111--------    --------|


(verso)

(refrão)

uncountable numbers written in new fallen snow...

-------333-11-----------    ------------1111-3--
----11-333-11-11--------    ----1111----1111-3--
----22-----22-22-2-0----    ----2222----2222----
----22-----33-22----2---(3x)----2222----3333----
-------222-33-----------    ------------3333-2--
-----------11-----------    ------------1111----


We hope and pray and ask, but we are never shown

-------333-11-----------    ------------1111-3----
----11-333-11-11--------    ----1111----1111-3-1--
----22-----22-22-2-0----    ----2222----2222---2--
----22-----33-22----2---(3x)----2222----3333---2--
-------222-33-----------    ------------3333-2----
-----------11-----------    ------------1111------


(refrão 2x)

We were born and raised (And raised)
Born and Raised (And raised)
-------------33333333----------1--------    --------|
----11111111-33333333----------1--------    ---1----|
----22222222-------------------2--------    ---2----|
----22222222----------22222222-3--------    ---2----|
-------------22222222-22222222-3--------    --------|
-------------------------------1--------    --------|

TOP cifras de Alexisonfire

  1. Control
  2. Side Walk When She Walks
  3. Boiled Frogs
  4. Sharks And Danger
  5. Adelleda
  6. Drunks Lovers Sinners And Saints
  7. Sidewalk When She Walks
  8. Little Girls Pointing And Laughing
  9. Get Fighted
  10. No Transistory

Pela Web