Cifras Web
Alexisonfire

Water Wings

Alexisonfire

13 acessos

Gtr I (Eb Ab Db Gb Bb Eb) - Dallas
Gtr II (Eb Ab Db Gb Bb Eb) - Wade

Verse 1 & 2

E5 G5 D5

Gtr I
PM--|

*|-----------------------------------|------------------------------------------|
*|-----------------------------------|------------------------------------------|
*|----------9--(9)--9--9--9--9--9-12-|-(12)-12-12-12-12-12--7--7--7--7--7--7--7-|
*|----------9--(9)--9--9--9--9--9-12-|-(12)-12-12-12-12-12--7--7--7--7--7--7--7-|
*|----------7--(7)--7--7--7--7--7-10-|-(10)-10-10-10-10-10--5--5--5--5--5--5--5-|
*|---0-0-0---------------------------|------------------------------------------|

|
| Gtr II
| PM--|

*|-----------------------------------|------------------------------------------|
*|-----------------------------------|------------------------------------------|
*|---------12-(12)-12-12-12-12-12-14-|-(14)-14-14-14-14-14-11-11-11-11-11-11-11-|
*|-----------------------------------|------------------------------------------|
*|---------10-(10)-10-10-10-10-10-12-|-(12)-12-12-12-12-12--9--9--9--9--9--9--9-|
*|---0-0-0---------------------------|------------------------------------------|



E5 G5
PM--|
|---------------------------------------|
|---------------------------------------|
|--(7)--7--7--------9--9--9--9--9--9-12-|
|--(7)--7--7--------9--9--9--9--9--9-12-|
|--(5)--5--5--------7--7--7--7--7--7-10-|
|------------0-0-0----------------------|
|
| PM--|

|---------------------------------------|
|---------------------------------------|
|-(11)-11-11-------12-12-12-12-12-12-14-|
|---------------------------------------|
|--(9)--9--9-------10-10-10-10-10-10-12-|
|------------0-0-0----------------------|




D5
|------------------------------------------|
|------------------------------------------|
|-(12)-12-12-12-12-12--7--7--7--7--7--7--7-|
|-(12)-12-12-12-12-12--7--7--7--7--7--7--7-|
|-(10)-10-10-10-10-10--5--5--5--5--5--5--5-|
|------------------------------------------|

|

|------------------------------------------|
|------------------------------------------|
|-(14)-14-14-14-16-16-11-11-11-11-11-11-11-|
|------------------------------------------|
|-(12)-12-12-12-14-14--9--9--9--9--9--9--9-|
|------------------------------------------|



E5 C5 D5
PM--|
|--------------------------------------|------------------------------------|
|--------------------------------------|------------------------------------|
|--(7)--7--7--------9--9--9--9--9--9-5-|-(5)-5-5-5-5-5--7--7--7--7--7--7--7-|
|--(7)--7--7--------9--9--9--9--9--9-5-|-(5)-5-5-5-5-5--7--7--7--7--7--7--7-|
|--(5)--5--5--------7--7--7--7--7--7-3-|-(3)-3-3-3-3-3--5--5--5--5--5--5--5-|
|------------0-0-0---------------------|------------------------------------|
|
| PM--|

|--------------------------------------|------------------------------------|
|--------------------------------------|------------------------------------|
|-(11)-11-11-------12-12-12-12-12-12-9-|-(9)-9-9-9-9-9-11-11-11-11-11-11-11-|
|--------------------------------------|------------------------------------|
|--(9)--9--9-------10-10-10-10-10-10-7-|-(7)-7-7-7-7-7--9--9--9--9--9--9--9-|
|------------0-0-0---------------------|------------------------------------|



To Coda
E5 G5
PM--|
|---------------------------------------|
|---------------------------------------|
|--(7)--7--7--------9--9--9--9--9--9-12-|
|--(7)--7--7--------9--9--9--9--9--9-12-|
|--(5)--5--5--------7--7--7--7--7--7-10-|
|------------0-0-0----------------------|
|
| PM--|

|---------------------------------------|
|---------------------------------------|
|-(11)-11-11-------12-12-12-12-12-12-14-|
|---------------------------------------|
|--(9)--9--9-------10-10-10-10-10-10-12-|
|------------0-0-0----------------------|




D5 D5
|----------------------------------------|
|----------------------------------------|
|-(12)-12-12-12-12-12--7--------------7--|
|-(12)-12-12-12-12-12--7--------------7--|
|-(10)-10-10-10-10-10--5--------------5--|
|------------------------0-0-0-0-0-0-----|

|
|----------------------------------------|
|----------------------------------------|
|-(14)-14-14-14-14-14-11-------------11--|
|----------------------------------------|
|-(12)-12-12-12-12-12--9--------------9--|
|------------------------0-0-0-0-0-0-----|

TOP cifras de Alexisonfire

  1. Control
  2. Side Walk When She Walks
  3. Boiled Frogs
  4. Sharks And Danger
  5. Adelleda
  6. Drunks Lovers Sinners And Saints
  7. Sidewalk When She Walks
  8. Little Girls Pointing And Laughing
  9. Get Fighted
  10. No Transistory

Pela Web