Cifras Web
Alice Cooper

Cant Sleep The Clowns Will Eat Me

Alice Cooper

13 acessos

Can't Sleep, the Clowns Will Eat Me

Intro

e-----------------------------------------------------------|
b-----------------------------------------------------------|
g-----------------------------------------------------------|
d--4-4-4-6-4-6-4-6-4--6-4-6-4-4-4--6-4-6-4-6-4--6-4-6-7-7-7-|
a--4-4-4-6-4-6-4-6-4--6-4-6-4-4-4--6-4-6-4-6-4--6-4-6-7-7-7-|
d--4-4-4-6-4-6-4-6-4--6-4-6-4-4-4--6-4-6-4-6-4--6-4-6-7-7-7-|



Verses

------------------------------------------------------|
------------------------------------------------------|
------------------------------------------------------|
-6-4-6-4-6-4--6-4-6-4-6-4--6-4-6-4-6-4--6-4-6-4-4-4---|
-6-4-6-4-6-4--6-4-6-4-6-4--6-4-6-4-6-4--6-4-6-4-4-4---|
-6-4-6-4-6-4--6-4-6-4-6-4--6-4-6-4-6-4--6-4-6-4-4-4---|




------------------------------------------------------|
------------------------------------------------------|
------------------------------------------------------|
-3-1-3-1-3-1--3-1-3-1-3-1--3-1-3-1-3-1--3-1-3-4-4-4---|  X2
-3-1-3-1-3-1--3-1-3-1-3-1--3-1-3-1-3-1--3-1-3-4-4-4---|
-3-1-3-1-3-1--3-1-3-1-3-1--3-1-3-1-3-1--3-1-3-4-4-4---|



Pre chorus (I cant close my eyes I'l never close my eyes...)

---------------------------------------------------------|
---8---8---8---8----8---8---8----------------------------|
---8---8---8---8----8---8---8----------------------------|
-8---8---8---8----8---8---8---8--------------------------|  X2
-8---8---8---8----8---8---8---8--------------------------|
-8---8---8---8----8---8---8---8--------------------------|



Chorus (It happens to me every night...)

---------------------------------------------------------|
---------------------------------------------------------|
-6-6-6-6--8-8-8-8----------------------------------------|
-6-6-6-6--8-8-8-8--6-8-x-6-8-6--6-8-x-6-8-6--------------|  X2
-4-4-4-4--6-6-6-6--6-8-x-6-8-6--6-8-x-6-8-6--------------|
-------------------6-8-x-6-8-6--6-8-x-6-8-6--------------|


---------------------------------------------------------------|
---------------------------------------------------------8---8-|
-6-6-6-6--8-8-8-8--6-6-6-6--8-8-8-8--6-6-6-6--8-8-8-8----8---8-|
-6-6-6-6--8-8-8-8--6-6-6-6--8-8-8-8--6-6-6-6--8-8-8-8--8---8---|
-4-4-4-4--6-6-6-6--4-4-4-4--6-6-6-6--4-4-4-4--6-6-6-6--8---8---|
-------------------------------------------------------8---8---|

TOP cifras de Alice Cooper

  1. I Got A Line On You
  2. Poison Intro
  3. How you gonna see me now
  4. Alma Mater
  5. Poison
  6. Only Women Bleed
  7. No more Mr. Nice Guy
  8. Saga Of Jesse Jane
  9. Steel That Car
  10. Clones

Pela Web