Cifras Web
Alien Ant Farm

Goodbye

Alien Ant Farm

11 acessos

Intro e Verso:

e|---------------------------------------------------------------------------|
B|---------------------------------------------------------------------------|
G|---------------------------------------------------------------------------|
D|-------------8-------8------------------8-------8----------------8-------8-|
A|---10-8-8-10---10-10---10-----10-8-8-10---10-10---10---10-8-8-10---10-10---|
E|-8------------------------6\7------------------------6---------------------|

                              Aqui começa a segunda parte

e|----------------------------\/----------------------------------------------|
B|----------------------------------------------------------------------------|
G|----------------------------------------------------------------------------|
D|---------------8-------8-----------------8-------8----------------8-------8-|
A|10---10-8-8-10---10-10---10---10-8-8-10---10-10---10----10-8-8-10---10-10---|
E|---7------------------------8------------------------10---------------------|



e|-------------------------------------------------------|
B|-------------------------------------------------------|
G|-------------------------------------------------------|
D|----------------8-------8------------------------------|
A|10----10-8-8-10---10-10---10----10-8-8-10---10-8-8-10--|
E|---11------------------------10-----------9------------|


Ponte e Refrão:

e|-------------------------------------------|
b|-------------------------------------------|
g|--8-======-======--12-======-======-12/10--|
d|--X-======-======--X--======-======-X------|
a|--6-======-======--10-======-======-10/8---|
E|-------------------------------------------|


Outro:

e|-8\11-10-8-6-3----7-10--|
b|-8\11-11-8-6-3----8-10--|
g|------------------------|
d|------------------------|
a|------------------------|
E|------------------------|


Guitarra 2:

e|-------------|
b|-13/8—12/8---|
g|-------------|
d|-------------|
a|-------------|
E|-------------|


Próxima parte: "You never caught that…”

e|--------------------------|
b|-------4-----------3------|
g|---3-----3-----3-----3----|
d|-5---5-----5-5---5-----5--|
a|--------------------------|
E|--------------------------|


Final:

e|---------------------------------------------------------------------------|
b|---------------------------------------------------------------------------|
g|-8-======-555-7-8-======-10-=====-12-======--pick---555-7------------------|
d|-X-======-XXX-X-X-======-X--=====--X-======---------XXX-X—--tocar-o-refão--|
a|-6-======-333-5-6-======-8--=====-10-======--slide--333-5------------------|
E|---------------------------------------------------------------------------|


Fade Out:
e|--------|
b|--------|
g|-12-===-
d|--X-===-
a|-10-===-
E|--------

TOP cifras de Alien Ant Farm

  1. Nova Hands
  2. Stranded
  3. Attitude
  4. Death Day Acoustic
  5. Movies Live
  6. Sarah Wynn
  7. It Could Happen
  8. Orange Appeal
  9. Hope
  10. Rubber Mallet

Pela Web