Cifras Web
Alien Ant Farm

Summer

Alien Ant Farm

13 acessos

Intro - Verso
 E|-----------------------------------------------------------|
 B|-----------------------------------------------------------|
 G|---6-6-6-x--4-4-4-x-----------4-4-4-x----------------------|
 D|---6-6-6-x--3-3-3-x--3-3-3-x--3-3-3-x--2-2-2-x--2-2-2-x----|
 A|---4-4-4-x--4-4-4-x--2-2-2-x--4-4-4-x--2-2-2-x--2-2-2-x----|
 E|-----------------------------------------------------------|

 E|-----------------------------------------------------------|
 B|-----------------------------------------------------------|
 G|-----------------------------------------------------------|
 D|-----------------------------------------------------------|
 A|---7-7-7-x--8-8-8-x----------------------------------------|
 E|---5-5-5-x--4-4-4-x----------------------------------------|

Refrão:
 E|-----------------------------------------------------------|
 B|-----------------------------------------------------------|
 G|---------------2-2-2-2-2-2---------------------------------|
 D|--7-7-7-7-7-7--2-2-2-2-2-2--2-2-2-2-2-2--4-4-4-4-4-4-------|
 A|--7-7-7-7-7-7--x-x-x-x-x-x--2-2-2-2-2-2--4-4-4-4-4-4-------|
 E|--5-5-5-5-5-5--2-2-2-2-2-2--x-x-x-x-x-x--2-2-2-2-2-2-------|

 E|--------------------------------------------|--------------|
 B|--------------------------------------------|--------------|
 G|--------------------------------------------|--------------|
 D|--------------------------------------------|--------------|
 A|--2-4-6-6-6-6-6-6-6-2-2-2-2-2-2-4-4-4-4-4-4-|-6-6-6-6-6-6--|
 E|--0-2-4-4-4-4-4-4-4-0-0-0-0-0-0-2-2-2-2-2-2-|-4-4-4-4-4-4--|

Segunda parte do refrão

 E|-----------------------------------------------------------|
 B|-----------------------------------------------------------|
 G|---------------2-2-2-2-2-2---------------------------------|
 D|--7-7-7-7-7-7--2-2-2-2-2-2--2-2-2-2-2-2--4-4-4-4-4-4-------|
 A|--7-7-7-7-7-7--x-x-x-x-x-x--2-2-2-2-2-2--4-4-4-4-4-4-------|
 E|--5-5-5-5-5-5--2-2-2-2-2-2--x-x-x-x-x-x--2-2-2-2-2-2-------|

 E|--------------------------------------------|--------------|
 B|--------------------------------------------|--------------|
 G|--------------------------------------------|--------------|
 D|--------------------------------------------|--------------|
 A|--2-4-6-6-6-6-6-6-6-2-2-2-2-2-2-4-4-4-4-4-4-|-4-4-4-4-4-3--|
 E|--0-2-4-4-4-4-4-4-4-0-0-0-0-0-0-2-2-2-2-2-2-|-2-2-2-2-2-1--|

 E|-------------------|
 B|-------------------|
 G|-------------------|
 D|--4-4-4-4-4-4------|
 A|--2-2-2-2-2-2------|
 E|-------------------|

volta ao Verso

TOP cifras de Alien Ant Farm

  1. Stranded
  2. Death Day Acoustic
  3. Movies Live
  4. Attitude
  5. Nova Hands
  6. Sarah Wynn
  7. It Could Happen
  8. Orange Appeal
  9. Hope
  10. Rubber Mallet

Pela Web