Cifras Web
Alkaline Trio

Bleeder

Alkaline Trio

11 acessos

Album: I Lied My Face Off/Self-titled
Transcribed by: Jim Taone\Mikey G

Intro:

-----------------------------------------------------|
-----------------------------------------------------|
-----------------------------------------------------|
-2-2-3-3-3-3--2-2-3-3-3-3--2-2-3-3-3-3--2-2-3-3-3-3--|
-3-3-3-3-3-3--3-3-3-3-3-3--3-3-3-3-3-3--3-3-3-3-3-3--|
-----------------------------------------------------|

                                                                              

Verse:

-----------------------------------------------------------|
-----------------------------------------------------------|
-----------------------------------------------------------|
-2-2-3-3-3-3----2-2-3-3-3-3-------------------3-3-3-3-3-3--| palm mute twice
-3-3-3-3-3-3----3-3-3-3-3-3----2-2-3-3-3-3----3-3-3-3-3-3--|
-------------------------------3-3-3-3-3-3----1-1-1-1-1-1--|

                                                                              

Chorus:

------------------------------------------------------------------------|
------------------------------------------------------------------------|
-12-12-12--10-10-10--5-5-5-5-------------------9-9-9-9\-----------------|
-12-12-12--10-10-10--5-5-5-5--5-5-5--5-5--5-5--9-9-9-9\-3-3-3-3--5-5-5-5|
-10-10-10---8--8--8--3-3-3-3--5-5-5--5-5--5-5--7-7-7-7\-3-3-3-3--5-5-5-5|
------------------------------3-3-3--3-3--3-3-----------1-1-1-1--3-3-3-3|

                                                                            

Outro part 1:

------------------------------------------------------------|
------------------------------------------------------------|
-5-5-5-5-------------5-5-5-5--------------------------------|
-x-x-x-x---5-5-5-5---x-x-x-x---5-5-5-5---2-2-2-2---5-5-5-5--|
-3-3-3-3---x-x-x-x---3-3-3-3---x-x-x-x---2-2-2-2---5-5-5-5--|
-----------3-3-3-3-------------3-3-3-3---0-0-0-0---3-3-3-3--|

                                                                              

Outro part 2:

--------------------------------|
--------------------------------|
-5-5-5-5-5-5--------------------|
-x-x-x-x-x-x---5-5-5-5/7-7\5-5--|
-3-3-3-3-3-3---x-x-x-x-x-x-x-x--|
---------------3-3-3-3/5-5\3-3--|

                                                                              
Outro part 3:

------------------------------------|
------------------------------------|
-5-5-5-5\4-4/5-5--------------------|
-x-x-x-x-x-x-x-x---5-5-5-5/7-7\5-5--|
-3-3-3-3\2-2/3-3---x-x-x-x-x-x-x-x--|
-------------------3-3-3-3/5-5\3-3--|



Outro part 4:

----------------------------------------|
----------------------------------------|
-5-5-5-5/9-9\7-7\5-5--------------------|
-x-x-x-x-x-x-x-x-x-x---5-5-5-5/7-7\5-5--|
-3-3-3-3/7-7\5-5\3-3---x-x-x-x-x-x-x-x--|
-----------------------3-3-3-3/5-5\3-3--|

                                                                              

Fill 1:

--------------------------------------|
--------------------------------------|
-----------7-7-7-7\5-5-5-5------------|
-2-2-2-2---x-x-x-x-x-x-x-x---5-5-5-5--|
-2-2-2-2---5-5-5-5\3-3-3-3---5-5-5-5--|
-0-0-0-0---------------------3-3-3-3--|

                                                                              

Songflow:
Intro
Verse 2x (clean)
Verse 2x
Chorus 
Verse 4x
Chorus
Intro
Verse 4x
Chorus 2x
Outro part 1
Outro part 2 4x
Outro part 3 2x
Outro part 4 2x
Fill 1
Chorus 2x

TOP cifras de Alkaline Trio

  1. Sorry About That
  2. Radio
  3. Sadie
  4. Clavicle
  5. Time To Waste
  6. Hell Yes
  7. My Little Needle
  8. Fuck You Aurora
  9. This Could Be Love
  10. Another Innocent Girl

Pela Web