Cifras Web
Alkaline Trio

Hating Every Minute

Alkaline Trio

11 acessos

One Man Army. This is my first tab so don't go too hard on me.
But, I think I tabbed most of this song correctly.

Tabbed by: Tom Fleming
Tuning: Standard

*=palm mute
~=let ring

Intro
          First part of Intro       Second part of Intro
-------------------------------- -------------------------------------|
-------------------------------- -------------------------------------|
6666----6666--------4444----4444 6666----6666888899991313131399994444-|
66666666666666662222444422224444 666666666666888899991313131399994444-|
44446666444466662222222222222222 444466664444666677771111111177772222-|
----4444----44440000----0000---- ----4444-----------------------------|


Verse (2x)

----------------------------------------|
----------------------------------------|
66-6------66-6-----------44-4------44-4-|
66-6-66-6-66-6-66-6-22-2-44-4-22-2-44-4-|
44-4-66-6-44-4-66-6-22-2-22-2-22-2-22-2-|
-----44-6------44-4-00-0------00-0------|

**   **   **   **   **   **   **   **

Second Part of Intro (1x)
Verse (2x)

Prechorus (2x)

------------------|
------------------|
9~---4~---6~---24-|
9~---4~---6~---24-|
7~---2~---4~---02-|
------------------|


                 I'm not sure about these two parts.
Chorus
------------------------------  -------------------------------|
------------------------------  -------------------------------|
----------------6x64x422222222  ----------------9x98x866666666-|
2222222266666666xxxxxx22222222  2222222266666666xxxxxx66666666-|
22222222666666664x42x200000000  22222222666666667x76x644444444-|
0000000044444444--------------  0000000044444444---------------|
          (2x)                                (1x)

"Like a year laying down." part (3x)
-----------------|
-----------------|
9999-------------|
9999222277779999-|
7777222277779999-|
----000055557777-|

Then play:

Second part of Intro (2x)
Verse (2x)
Prechorus (2x)
Chorus Pt. 1 (2x) Pt. 2 (1x)
"Like a year laying down" part (3x)

Ending
-----------------------------------|
-----------------------------------|
6666----6666--------4444-----------|
666666666666666622224444777766662~-|
444466664444666622222222777766662~-|
----4444----44440000----555544440~-|

If you have any comments or questions feel free to email me at *.

TOP cifras de Alkaline Trio

  1. Sorry About That
  2. Radio
  3. Sadie
  4. Clavicle
  5. Time To Waste
  6. Hell Yes
  7. My Little Needle
  8. Fuck You Aurora
  9. This Could Be Love
  10. Another Innocent Girl

Pela Web