Cifras Web
Alkaline Trio

Jaked On Green Beers

Alkaline Trio

11 acessos

By:LeCuza202-I Did The Verse Pretty Well,But I Got Lazy And I Didnt Get
             The Detailize The * Song Is Very Cool To Play On Bass
             But Its A Little Tricky

  INTRO
G|---------------------------------------------------------------------------------|
D|------------------------------1-1-11-44p3-1-----11-33-44-4-4-33-3-3-11-1-1-------|
A|-------------------------------------------22-44---------------------------44-4-4|
E|--2-22-22-2-22-2-22-22-2-22-22---------------------------------------------------|

  Intro (Continued)
G|---------------------------------------------------------------------------|
D|--1-1-11-44p3-1------11-33-------------------------------------------------|
A|---------------22-44-------------------------------------------------------|
E|---------------------------------------------------------------------------|

  VERSE
G|---------------------------------------------------------------------44-3-1-11-|
D|-------------------------------------------------------44-4-4-66-6-6-----------|
A|---------------------------22-2-2-22-2-2-44-4-4-44-4-4-------------------------|
E|--2-22-2-2-22-2-22-2-22-2-2----------------------------------------------------|

  Verse (Continued)
G|---------------------------------------------------------------------------|
D|11-1-1-11-1-1--------------------------------------------------------------|
A|--------------22-2-2-22-2-2------------------------------------------------|
E|---------------------------------------------------------------------------|

  Verse (Continued)
G|---------------------------------------------------------------------------|
D|---------------------------------------------------------------------------|
A|-----------------------------2-22-222-2-22-222-444333111-0-0-00------------|
E|--2-2-22-2-2-22-2-22-2-2-22-2----------------------------------------------|

  Verse (Continued)
G|---------------------------------------------------------------------------|
D|--4-4-44-33-3-3-1-1-11--------1-1-11-1-1-11--------------------------------|
A|-----------------------4-4-44---------------2-22-22-2-22-222---------------|
E|---------------------------------------------------------------------------|

  Verse (Continued)
G|---------------------------------------------------------------------------|
D|--------------------------4-4-44-4-4-44------------------------------------|
A|---------------------------------------------------------------------------|
E|--2-22-22-2-22-22-2-22-22--------------------------------------------------|

  BRIDGE
G|---------------------------------------------------------------------------|
D|---------------------------------------------------------------------------|
A|--------------------2-2-2-2~-4-4-4-4~--------------------------------------|
E|--2-2-2-2~-2-2-2-2~--------------------------------------------------------|

  INTERLUDE
G|---------------------------------------------------------------------------|
D|---------------------------------------------------------------------------|
A|-----------------2222222244444444------------------------------------------|
E|--222222222222222----------------------------------------------------------|

===============================================================================

TOP cifras de Alkaline Trio

  1. Sorry About That
  2. Radio
  3. Sadie
  4. Clavicle
  5. Time To Waste
  6. Hell Yes
  7. My Little Needle
  8. Fuck You Aurora
  9. This Could Be Love
  10. Another Innocent Girl

Pela Web