Cifras Web
Alkaline Trio

Queen Of Pain

Alkaline Trio

9 acessos

Tabbed By: Chris
EMail: *


INTRO

G|-----------------------------------------------------------------|
D|-----------------------------------------------------------------|
A|-7-7-7-7-7-7-7-7-7-7-7-7-4-4-4-4-2-2-2-2-2-2-2-2-2-2-2-2-1-1-1-1-|
E|-----------------------------------------------------------------|

G|-----------------------------------------------------------------|
D|-----------------------------------------------------------------|
A|---------------------------------2-2-2-2-2-2-2-2-2-2-2-2-2-2-2-2-|
E|-4-4-4-4-4-4-4-4-2-2-2-2-2-2-2-2---------------------------------|

G|-----------------------------------------------------------------|
D|-----------------------------------------------------------------|
A|-7-7-7-7-7-7-7-7-7-7-7-7-4-4-4-4-2-2-2-2-2-2-2-2-2-2-2-2-1-1-1-1-|
E|-----------------------------------------------------------------|

G|---------------------------------------------------------------|
D|---------------------------------------------------------------|
A|---------------------------------2-2-2-2-2-2-2-2-2-2-2-2-2/12\-|
E|-4-4-4-4-4-4-4-4-2-2-2-2-2-2-2-2-------------------------------|

FIRST VERSE

G|-----------------------------------------|
D|-----------------------------------------|
A|----4-4--2-2-2-2-2-2-2-2-4-4-4-4-4-4-4-4-|
E|-----------------------------------------|

G|-----------------------------------------------------------------|
D|-----------------------------------------------------------------|
A|-6-6-6-6-6-6-6-6-6-6-6-6-4-4-4-4-2-2-2-2-2-2-2-2-----------------|
E|-------------------------------------------------2-2-2-2-1-1-1-1-|

G|-----------------------------------------------------------------|
D|-----------------------------------------------------------------|
A|-6-6-6-6-6-6-6-6-6-6-6-6-4-4-4-4-2-2-2-2-2-2-2-2-4-4-4-4-4-4-4-4-|
E|-----------------------------------------------------------------|

G|-----------------------------------------------------------------|
D|-----------------------------------------------------------------|
A|-6-6-6-6-6-6-6-6-6-6-6-6-4-4-4-4-2-2-2-2-2-2-2-2-----------------|
E|-------------------------------------------------2-2-2-2-1-1-1-1-|

SUBSEQUENT VERSES

G|-----------------------------------------------------------------|
D|-----------------------------------------------------------------|
A|-6-6-6-6-6-6-6-6-6-6-6-6-4-4-4-4-2-2-2-2-2-2-2-2-4-4-4-4-4-4-4-4-|
E|-----------------------------------------------------------------|

G|-----------------------------------------------------------------|
D|-----------------------------------------------------------------|
A|-6-6-6-6-6-6-6-6-6-6-6-6-4-4-4-4-2-2-2-2-2-2-2-2-----------------|
E|-------------------------------------------------2-2-2-2-1-1-1-1-|

PRECHORUS

G|------------------------------------------------------------|
D|------------------------------------------------------------|
A|-6-6-6-6-6-6-6-6-6-6-6-6-6-6-6-6-6-6-6-6-6-6-6-6--4-4--2-2--|
E|------------------------------------------------------------|

CHORUS

G|-----------------------------------------------------------------|
D|-4-4-4-4-4-4-4-4-4-4-4-4-4-4-4-4---------------------------------|
A|---------------------------------6-6-6-6-6-6-6-6-2-2-2-2-2-2-2-2-|
E|-----------------------------------------------------------------|

G|-----------------------------------------------------------------|
D|-4-4-4-4-4-4-4-4-4-4-4-4-4-4-4-4---------------------------------|
A|---------------------------------6-6-6-6-6-6-6-6-2-2-4-4-6-6-8-8-|
E|-----------------------------------------------------------------|

G|-----------------------------------------------------------------|
D|-4-4-4-4-4-4-4-4-4-4-4-4-4-4-4-4---------------------------------|
A|---------------------------------6-6-6-6-6-6-6-6-2-2-2-2-2-2-2-2-|
E|-----------------------------------------------------------------|

G|-----------------------------------------------------------------|
D|-----------------------------------------------------------------|
A|---------------------------------6-6-6-6-6-6-6-6-4-4-4-4-4-4-4-4-|
E|-2-2-2-2-2-2-2-2-2-2-2-2-2-2-2-2---------------------------------|

INTERLUDE

G|-----------------------------------------------------------------|
D|-----------------------------------------------------------------|
A|-7-7-7-7-7-7-7-7-7-7-7-7-4-4-4-4-2-2-2-2-2-2-2-2-2-2-2-2-1-1-1-1-|
E|-----------------------------------------------------------------|

G|---------------------------------------------------------------|
D|---------------------------------------------------------------|
A|---------------------------------2-2-2-2-2-2-2-2-2-2-2-2-2/12\-|
E|-4-4-4-4-4-4-4-4-2-2-2-2-2-2-2-2-------------------------------|

BRIDGE

G|-----------------------------------------------------------------|
D|-4-4-4-4-4-4-4-4-4-4-4-4-4-4-4-4---------------------------------|
A|---------------------------------6-6-6-6-6-6-6-6-2-2-2-2-2-2-2-2-|
E|-----------------------------------------------------------------|

OUTRO CHORUS

G|-----------------------------------------------------------------|
D|-----------------------------------------------------------------|
A|---------------------------------6-6-6-6-6-6-6-6-2-2-2-2-2-2-2-2-|
E|-2-2-2-2-2-2-2-2-2-2-2-2-2-2-2-2---------------------------------|

G|-----------------------------------------------------------------|
D|---------4-4-4-4-------------------------------------------------|
A|---------------------------------6-6-6-6-6-6-6-6-2-2-2-2-2-2-2-2-|
E|-2-2-2-2---------2-2-2-2-2-2-2-2---------------------------------|

G|-----------------------------------------------------------------|
D|-----------------------------------------------------------------|
A|---------------------------------6-6-6-6-6-8-8-9-2-2-2-2-2-2-2-2-|
E|-2-2-2-2-2-2-2-2-2-2-2-2-2-2-2-2---------------------------------|

G|-----------------------------------------------------------------|
D|-4-4-4-4-4-4-4-4-4-4-4-4-4-4-4-4---------------------------------|
A|---------------------------------6-6-6-6-6-6-6-6-4-4-4-4-4-4-4-4-|
E|-----------------------------------------------------------------|

G|-----------------------------------------------------------------|
D|---------4-4-4-4---------4-4-4-4---------------------------------|
A|---------------------------------6-6-6-6-6-6-6-6-4-4-4-4-4-4-4-4-|x2
E|-2-2-2-2---------2-2-2-2-----------------------------------------|

G|-----------------------------------------------------------------|
D|---------4-4-4-4---------4-4-4-4---------------------------------|
A|---------------------------------6-6-6-6-6-8-8-9-4-4-4-4-4-4-4-4-|
E|-2-2-2-2---------2-2-2-2-----------------------------------------|

G|-----------------------------------------------------------------|
D|---------4-4-4-4---------4-4-4-4---------------------------------|
A|---------------------------------6-6-6-6-6-6-6-6-4-4-4-4-4-4-4-4-|
E|-2-2-2-2---------2-2-2-2-----------------------------------------|

G|---|
D|---|
A|---|
E|-2-|

TOP cifras de Alkaline Trio

  1. Sorry About That
  2. Radio
  3. Sadie
  4. Clavicle
  5. Time To Waste
  6. Hell Yes
  7. My Little Needle
  8. Fuck You Aurora
  9. Burn
  10. This Could Be Love

Pela Web