Cifras Web
Amber Pacific

Here We Stand

Amber Pacific

13 acessos

Tabbed by: Tristan Licayan

Note: I haven't placed the correct strumming. U juz listen and figure it out..

Riff 1: (played by Guitar 1)

e|---------------------------------|
B|-7-----5-----4-----7-----5-------|
G|---4-----4-----4-----4-----4---5-|
D|-----6-----6-----6-----6-----6---|
A|---------------------------------|
E|---------------------------------|


Riff 2: (played by Guitar 2)

e|-------------------------------------|
B|-------------------------------------|
G|-44444444----------------------------|
D|-44444444-22222222-66666666-22222222-|
A|-22222222-22222222-66666666-22222222-|
E|----------00000000-44444444-00000000-|


Riff 3: (played by Guitar 2)

e|-------------------------------------|
B|-------------------------------------|
G|-------------------------------------|
D|-66666666-22222222-66666666-22222222-|
A|-66666666-22222222-66666666-22222222-|
E|-44444444-00000000-44444444-00000000-|


Riff 4: (played by Guitar 2)

e|-------------------------------------|
B|-------------------------------------|
G|-44444444----------------------------|
D|-44444444-66666666-44444444-22222222-|
A|-22222222-66666666-44444444-22222222-|
E|----------44444444-22222222-00000000-|


Riff 5: (played by Guitar 2)

e|-------------------------------------|
B|-------------------------------------|
G|-------------------------------------|
D|-66666666-44444444-22222222-22222222-|
A|-66666666-44444444-22222222-22222222-|
E|-44444444-22222222-00000000-00000000-|


Riff 6: (played by Guitar 2)

e|-------------------------------------------------------|
B|-------------------------------------------------------|
G|-------------------44444444----------------------------|
D|-22222222-22222222-44444444-22222222-66666666-44444444-|
A|-22222222-22222222-22222222-22222222-66666666-44444444-|
E|-00000000-00000000----------00000000-44444444-22222222-|


Riff 7: (played by Guitar 2)

e|------------------------|
B|------------------------|
G|-4~---------------------|
D|-4~--6~--4~--2~--222222-|
A|-2~--6~--4~--2~--222222-|
E|-----4~--2~--0~--000000-|


Order:

Verse 1:
Riff 1 (repeat throughout first verse)
Riff 2 (2x)
Riff 3 (1x)

Chorus 1:
Riff 4 (4x)
Riff 5 (4x)

Verse 2:
Riff 1 (repeat throughout second verse)
Riff 3 (2x)

Chorus 2:
Riff 4 (4x)
Riff 5 (4x)

Bridge:
Riff 6 (1x)
Riff 7 (1x)

Last Chorus:
Riff 4 (4x)

End on:
e|----|
B|----|
G|-4~-|
D|-4~-|
A|-2~-|
E|----|




TOP cifras de Amber Pacific

  1. Rule 76
  2. Summer In B
  3. Everything We Were
  4. Gone So Young
  5. Thoughts Before Me
  6. Here We Stand
  7. You're Only Young Once
  8. Always You
  9. Cant Hold Back
  10. Dear This Has Always Been About Standing Up For What You Believe In Intro

Pela Web