Cifras Web
Amber Pacific

You're Only Young Once

Amber Pacific

13 acessos

Tabbed by: Bair
Email: *

Tuning: Standard


Intro:

e|---------------------------------------------------------------|
B|---------------------------------------------------------------|
G|--4-4444444----------------------------------------------------|
D|--4-4444444--4-4444444--6-6666666--22222222--(X2)--------------|
A|--2-2222222--4-4444444--6-6666666--22222222--------------------|
E|-------------2-2222222--4-4444444--00000000--------------------|

"Heres to the day, I'm on my way...."


e|---------------------------------------------------------------|
B|---------------------------------------------------------------|
G|--444444--------------------444444-----------------------------|
D|--444444--222222--44444444--444444--222222--44444444-----------|
A|--222222--222222--44444444--222222--222222--44444444-----------|
E|----------000000--22222222----------000000--22222222-----------|


Verse:

e|------------------------------------------------------------------|
B|------------------------------------------------------------------|
G|--44444444-----------------------------------------------4--------|
D|--44444444--22222222--66666666--2222--444444444444--444--4--(X2)--|
A|--22222222--22222222--66666666--2222--444444444444--444--2--------|
E|------------00000000--44444444--0000--222222222222--222-----------|

"You never learn to expect the worst...."


e|---------------------------------------------------------------|
B|---------------------------------------------------------------|
G|--44-----------------------------------------------------------|
D|--44--22--44-44-4----------------------------------------------|
A|--22--22--44-44-4----------------------------------------------|
E|------00--22-22-2----------------------------------------------|


Chorus:

e|---------------------------------------------------------------|
B|---------------------------------------------------------------|
G|--444444--------------------444444-----------------------------|
D|--444444--222222--44444444--444444--222222--44444444-----------|
A|--222222--222222--44444444--222222--222222--44444444-----------|
E|----------000000--22222222----------000000--22222222-----------|

"The way you are is not your fault...."


e|---------------------------------------------------------------|
B|---------------------------------------------------------------|
G|--44444444444444444444--444444---------------------------------|
D|--44444444444444444444--444444--222222--444444-----------------|
A|--22222222222222222222--222222--222222--444444-----------------|
E|--------------------------------000000--222222-----------------|

"Too far to see how things could be...."

Interlude:

e|---------------------------------------------------------------|
B|---------------------------------------------------------------|
G|----------------------444444444444-----------------------------|
D|--22222222--44444444--444444444444--(X2)-----------------------|
A|--22222222--44444444--222222222222-----------------------------|
E|--00000000--22222222-------------------------------------------|

"Just close your eyes and dream...."


e|---------------------------------------------------------------|
B|---------------------------------------------------------------|
G|---------------------------------------------------------------|
D|--2-2-2-2--4--(Let Ring)---------------------------------------|
A|--2-2-2-2--4---------------------------------------------------|
E|--0-0-0-0--2---------------------------------------------------|

"Just trust that you'll be strong...."

- Then Chorus (X2)

Outro:

e|---------------------------------------------------------------|
B|---------------------------------------------------------------|
G|--4------------------------------------------------------------|
D|--4--2--4--(Let ring)------------------------------------------|
A|--2--2--4------------------------------------------------------|
E|-----0--2------------------------------------------------------|

"I thought I knew who you were...."


TOP cifras de Amber Pacific

  1. Rule 76
  2. Summer In B
  3. Everything We Were
  4. Gone So Young
  5. Thoughts Before Me
  6. Here We Stand
  7. You're Only Young Once
  8. Always You
  9. Cant Hold Back
  10. Dear This Has Always Been About Standing Up For What You Believe In Intro

Pela Web