Cifras Web
Ataraxia

Bleumarine

Ataraxia

15 acessos

Date: Thu, 5 Mar 1998 22:38:25 +0100 (MET)
From: Nicolas Ramain 

 
--------------------------

 From "Concerto N?6" (1996)
 
--------------------------



Transcribed by nico.

No rhythm tabbed.



e:-----------------------------------------|
B:-----------------------------------------|
G:-2-3-2-5-x-7-8-7-5-2---2-3-2--5--2-0-2---|
D:-3-----3---5-----7-3-0-3-----5-5-0---0-0-|
A:----------------------------3------------|
E:-----------------------------------------|




e:---------------------------------------|
B:-----------------------6---------------|
G:-2-3-2-5-0-7-8-7-5-7-----8-8-7-5-7-7---|
D:-3-----3---5-----7-8-8-8-8-8-8-7-5-5-0-|
A:---------------------------------------|
E:---------------------------------------|




e:-------------------------------------|
B:-------------------------------------|
G:-2-3-2--5--2-0-2---2-3-2--5--2-0-2---|
D:-3-----5-5-0---0-0-3-----5-5-0---0-0-|
A:------3-----------------3------------|
E:-------------------------------------|


  ...
e:---|
B:---|
G:---|
D:---|
A:---|
E:---|

  1:57

e:-------------------------------------|
B:-------------------------------------|
G:-9---9---9---9-7-5-7---7---7---7-5-7-|
D:-7-7-7-7-7-7-7-7-7-5-5-5-5-5-5-5-----|
A:-------------------------------------|
E:-------------------------------------|




e:-------------------------------------|
B:-----10------------------------------|
G:-9-------9---9-7-5-7---5---4---4-5-0-|
D:-7-7-7-7-7-7-7-7-7-5-5-5-0-5-5-5-----|
A:-------------------------------------|
E:-------------------------------------|


  ...
e:---|
B:---|
G:---|
D:---|
A:---|
E:---|

  2:44

e:-6---5---6---5---5---|-3---2---3---5--3-2---|-8---7---8---7---7---|
B:--3---3---3---3---3--|--0---0---0---0----0--|--5---5---5---5---5--|
G:---3---3---3---3---0-|---0---0---0--------0-|---5---5---5---5---0-|
D:-5---4---5---4---4---|-2---1---2---2--2-1---|-7---6---7---6---6---|
A:---------------------|----------------------|---------------------|
E:---------------------|----------------------|---------------------|

   x2# x2# x2#           x2# x2#          x2#   x2# x2# x2#


  ...
e:---|
B:---|
G:---|
D:---|
A:---|
E:---|

TOP cifras de Ataraxia

  1. Il Signore Delle Botole
  2. Bleumarine
  3. Le Ore Rosa Di Mazenderan
  4. Li Frere Li Mestre Du Temple
  5. Scarlet Leaves

Pela Web