Cifras Web
Ataraxia

Le Ore Rosa Di Mazenderan

Ataraxia

14 acessos


       Q     Q    Q    Q       Q    Q    Q     Q       H        Q    E   E
E|--------------3---------|--3---------5s----7----|--7--------L----5h--7p--|
B|---3s----5---------5----|-------5---------------|------------------------|
G||*-----------------------|-----------------------|------------------------|
D||*-----------------------|-----------------------|------------------------|
A|------------------------|-----------------------|------------------------|
E|---0---------------L----|--0----L----0-----L----|--0---------------------|



  Q    Q    Q    Q       H        Q    Q       H        Q     Q

--5----3----2----3----|--2--------0----2----|--3--------5p----3----|
----------------------|---------------------|----------------------|
----------------------|---------------------|----------------------|
----------------------|--0------------------|-----------------L----|
----------------------|---------------------|----------------------|
-----------------L----|---------------------|----------------------|



                                               ^
  H        Q    E   E      W                   H        Q    Q

--2--------L------------|-------------------|---------------------|
----------------3h--5p--|--3----------------|--5--------L----L----|
------------------------|-------------------|--5--------5----4----|
--0---------------------|--L----------------|--5-------------L----|
----------------L---L---|-------------------|--3------------------|
------------------------|-------------------|---------------------|



  Q    Q    Q    Q       Q    Q    Q    Q       Q    Q    Q    Q

----------------------|----------------------|----------------------|
-------3----5---------|--3-------------------|----------------------|
--5--------------5----|-------5----4----5----|--4-------------------|
----------------------|----------------------|-------5----2----5----|
-----------------L----|--3-------------------|-----------------L----|
----------------------|----------------------|----------------------|



  Q    Q    Q    Q       Q    Q    Q    Q       W

----------------------|--0--------------0----|-------------------|
----------------------|------------0---------|--3----------------|
-----------------0----|-------0--------------|-------------------|
------------0---------|----------------------|-------------------|
-------2--------------|----------------------|-------------------|
--3-------------------|-----------------L----|--3----------------|



  ^
  Q    Q    Q    Q       Q    Q    Q    Q       Q    Q    Q    Q

--0----L---------L----|----------------------|--0--------------0----|
--3----3---------0----|-----------------1----|------------1---------|
--2---------2---------|------------2---------|-------2--------------|
--0--------------L----|-------2--------------|----------------------|
----------------------|--0-------------------|-----------------L----|
----------------------|----------------------|----------------------|



  Q    Q    Q    Q       Q    Q    Q    Q       Q    Q    Q    Q

----------------------|--0--------------0----|----------------------|
-----------------1----|------------0---------|--3---------L----3----|
------------2---------|-------0--------------|------------2---------|
-------2--------------|----------------------|-------0--------------|
----------------------|----------------------|----------------------|
--3-------------------|-----------------L----|--2-------------------|



  Q    Q    Q    Q       Q    Q    Q    Q       Q    Q    H

--0--------------0----|----------------------|--0------------------|
------------3---------|-----------------3----|------------3--------|
-------2--------------|------------2---------|-------2-------------|
----------------------|-------0--------------|---------------------|
----------------------|----------------------|---------------------|
-----------------L----|--2-------------------|------------L--------|



  Q    Q    Q    Q       Q    Q    Q    Q       Q    Q    Q    Q

----------------------|--3--------------0----|--1--------------1----|
-----------------3----|------------3---------|------------3---------|
------------4---------|-------0--------------|-------2--------------|
-------5--------------|----------------------|--3-------------------|
----------------------|----------------------|----------------------|
--3-------------------|-----------------L----|----------------------|



  Q    Q    Q    Q       Q    Q    Q    Q       Q    Q    Q    Q

--0-------------------|----------------------|--0--------------0----|
-------3---------0----|--1---------L----1----|------------1---------|
------------2---------|------------2---------|-------2--------------|
-----------------L----|-------2--------------|----------------------|
----------------------|--0-------------------|-----------------L----|
----------------------|----------------------|----------------------|



  Q    Q    Q    Q       Q    Q    Q    Q       Q    Q    Q    Q

----------------------|--0--------------0----|----------------------|
-----------------1----|------------1---------|-----------------0----|
------------2---------|-------2--------------|------------1---------|
-------2--------------|----------------------|-------2--------------|
--0-------------------|-----------------L----|--2-------------------|
----------------------|----------------------|----------------------|



  Q    Q    Q    Q       Q    Q    Q    Q       Q    Q    Q    Q

--0--------------0----|----------------------|--0--------------0----|
------------0---------|--2---------L----2----|------------2---------|
-------1--------------|------------1---------|-------1--------------|
----------------------|-------2--------------|----------------------|
-----------------L----|--1-------------------|-----------------L----|
----------------------|----------------------|----------------------|



  Q    Q    Q    Q       Q    Q    Q    Q       Q    Q    Q    Q

----------------------|--2--------------2----|----------------------|
-----------------0----|------------0---------|-----------------0----|
------------2---------|-------2--------------|------------2---------|
-------1--------------|----------------------|-------1--------------|
--2-------------------|-----------------L----|--2-------------------|
----------------------|----------------------|----------------------|



  Q    Q    Q    Q       Q    Q    Q    Q       Q    Q    Q    Q

--2--------------0----|----------------------|----------------------|
------------0---------|----------------------|--0--------------0----|
-------2--------------|-----------------0----|------------0---------|
----------------------|------------2---------|-------2--------------|
-----------------L----|-------2--------------|----------------------|
----------------------|--0-------------------|-----------------L----|



  Q    Q    Q    Q       Q    Q    Q    Q       Q    Q    Q    Q

--0--------------0----|--7--------------7----|--7--------------7----|
------------0---------|-------0--------------|------------5---------|
-------0--------------|------------0---------|-------5--------------|
----------------------|----------------------|----------------------|
----------------------|----------------------|--0-------------------|
--0-------------------|-----------------L----|----------------------|



  Q    Q    Q    Q       Q    Q    Q    Q       Q    Q    Q    Q

------------7---------|--5--------------5----|------------5---------|
--5--------------5----|------------5---------|--5--------------5----|
-------5--------------|-------5--------------|-------5--------------|
----------------------|----------------------|----------------------|
-----------------L----|--0-------------------|-----------------L----|
----------------------|----------------------|----------------------|



  Q    Q    Q    Q       Q    Q    Q    Q       Q    Q    Q    Q

--3--------------3----|------------2---------|--0--------------2----|
------------0---------|--0--------------0----|------------0---------|
-------0--------------|-------0--------------|-------0--------------|
----------------------|----------------------|----------------------|
----------------------|----------------------|----------------------|
--0-------------------|-----------------L----|--0-------------------|



  Q    Q    Q    Q       Q    Q    Q    Q       Q    Q    Q    Q

------------3---------|--7--------------7----|------------7---------|
-------0--------------|------------5---------|--5--------------5----|
--0--------------0----|-------5--------------|-------5--------------|
----------------------|----------------------|----------------------|
----------------------|--0-------------------|-----------------L----|
-----------------L----|----------------------|----------------------|



  Q    Q    Q    Q       Q    Q    Q    Q       Q    Q    Q    Q

--5--------------5----|------------5---------|--3--------------3----|
------------5---------|--5--------------5----|------------0---------|
-------5--------------|-------5--------------|-------0--------------|
----------------------|----------------------|----------------------|
--0-------------------|-----------------L----|----------------------|
----------------------|----------------------|--0-------------------|



  Q    Q    Q    Q       Q    Q    Q    Q       Q    Q    Q    Q

------------2---------|--0--------------2----|------------3---------|
--0--------------0----|------------0---------|-------0--------------|
-------0--------------|-------0--------------|--0--------------0----|
----------------------|----------------------|----------------------|
----------------------|----------------------|----------------------|
-----------------L----|--0-------------------|-----------------L----|



  Q    Q    Q    Q       Q    Q    Q    Q       Q    Q    Q    Q

--2--------------2----|------------2---------|--3--------------2----|
------------1---------|--1--------------1----|------------1---------|
-------2--------------|-------2--------------|-------2--------------|
--0-------------------|-----------------L----|--0-------------------|
----------------------|----------------------|----------------------|
----------------------|----------------------|----------------------|



  Q    Q    Q    Q       Q    Q    Q    Q       Q    Q    Q    Q

------------2---------|----------------------|----------------------|
-------1---------1----|----------------------|--0--------------0----|
--2-------------------|-----------------0----|------------0---------|
-----------------L----|------------2---------|-------2--------------|
----------------------|-------2--------------|----------------------|
----------------------|--0-------------------|----------------------|



  Q    Q    Q    Q       Q    Q    Q    Q       Q    Q    Q    Q

--0-------------------|-----------------0----|--2--------------2----|
-------0---------0----|----------------------|------------1---------|
------------0---------|--0---------0---------|-------2--------------|
----------------------|-------2---------2----|--0-------------------|
----------------------|----------------------|----------------------|
----------------------|----------------------|----------------------|



  Q    Q    Q    Q       Q    Q    Q    Q       Q    Q    Q    Q

------------2---------|--3--------------2----|------------2---------|
--1--------------1----|------------1---------|-------1---------1----|
-------2--------------|-------2--------------|--2-------------------|
-----------------L----|--0-------------------|-----------------L----|
----------------------|----------------------|----------------------|
----------------------|----------------------|----------------------|



  Q    Q    Q    Q       Q    Q    Q    Q       Q    Q    Q    Q

----------------------|----------------------|--0-------------------|
----------------------|--0--------------0----|-------0---------0----|
-----------------0----|------------0---------|------------0---------|
------------2---------|-------2--------------|----------------------|
-------2--------------|----------------------|----------------------|
--0-------------------|----------------------|----------------------|



  Q    Q    Q    Q     4x  Q     Q    Q    Q       Q    Q    Q     Q

-----------------------||-------------3---------|--3---------5s----7----|
-----------------------||--3s----5---------5----|-------5---------------|
--0---------0---------*||-----------------------|-----------------------|
-------2---------2----*||-----------------------|-----------------------|
-----------------------||-----------------------|-----------------------|
-----------------------||--0---------------L----|--0----L----0-----L----|



  H        Q    E   E      Q    Q    Q    Q       H        Q    Q

--7--------L----5h--7p--|--5----3----2----3----|--2--------0----2----|
------------------------|----------------------|---------------------|
------------------------|----------------------|---------------------|
------------------------|----------------------|--0------------------|
------------------------|----------------------|---------------------|
--0---------------------|-----------------L----|---------------------|



  H        Q     Q       H        Q    E   E      W

--3--------5p----3----|--2--------L------------|-------------------|
----------------------|----------------3h--5p--|--3----------------|
----------------------|------------------------|-------------------|
-----------------L----|--0---------------------|--L----------------|
----------------------|----------------L---L---|-------------------|
----------------------|------------------------|-------------------|



  ^
  H        Q    Q       Q    Q    Q    Q       Q    Q    Q    Q

---------------------|----------------------|----------------------|
--5--------L----L----|-------3----5---------|--3-------------------|
--5--------5----4----|--5--------------5----|-------5----4----5----|
--5-------------L----|----------------------|----------------------|
--3------------------|-----------------L----|--3-------------------|
---------------------|----------------------|----------------------|



  Q    Q    Q    Q       Q    Q    Q    Q       Q    Q    Q    Q

----------------------|----------------------|--0--------------0----|
----------------------|----------------------|------------0---------|
--4-------------------|-----------------0----|-------0--------------|
-------5----2----5----|------------0---------|----------------------|
-----------------L----|-------2--------------|----------------------|
----------------------|--3-------------------|-----------------L----|



                      ^
  W                   Q    Q    Q    Q       Q    Q    Q    Q

-------------------|--0----L---------L----|----------------------|
--3----------------|--3----3---------0----|-----------------1----|
-------------------|--2---------2---------|------------2---------|
-------------------|--0--------------L----|-------2--------------|
-------------------|----------------------|--0-------------------|
--3----------------|----------------------|----------------------|



  Q    Q    Q    Q       Q    Q    Q    Q       Q    Q    Q    Q

--0--------------0----|----------------------|--0--------------0----|
------------1---------|-----------------1----|------------0---------|
-------2--------------|------------2---------|-------0--------------|
----------------------|-------2--------------|----------------------|
-----------------L----|----------------------|----------------------|
----------------------|--3-------------------|-----------------L----|



  Q    Q    Q    Q       Q    Q    Q    Q       Q    Q    Q    Q

----------------------|--0--------------0----|----------------------|
--3---------L----3----|------------3---------|-----------------3----|
------------2---------|-------2--------------|------------2---------|
-------0--------------|----------------------|-------0--------------|
----------------------|----------------------|----------------------|
--2-------------------|-----------------L----|--2-------------------|



  Q    Q    H           Q    Q    Q    Q       Q    Q    Q    Q

--0------------------|----------------------|--3--------------0----|
------------3--------|-----------------3----|------------3---------|
-------2-------------|------------4---------|-------0--------------|
---------------------|-------5--------------|----------------------|
---------------------|----------------------|----------------------|
------------L--------|--3-------------------|-----------------L----|



  Q    Q    Q    Q       Q    Q    Q    Q       Q    Q    Q    Q

--1--------------1----|--0-------------------|----------------------|
------------3---------|-------3---------0----|--1---------L----1----|
-------2--------------|------------2---------|------------2---------|
--3-------------------|-----------------L----|-------2--------------|
----------------------|----------------------|--0-------------------|
----------------------|----------------------|----------------------|



  Q    Q    Q    Q       Q    Q    Q    Q       Q    Q    Q    Q

--0--------------0----|----------------------|--0--------------0----|
------------1---------|-----------------1----|------------1---------|
-------2--------------|------------2---------|-------2--------------|
----------------------|-------2--------------|----------------------|
-----------------L----|--0-------------------|-----------------L----|
----------------------|----------------------|----------------------|



  Q    Q    Q    Q       Q    Q    Q    Q       Q    Q    Q    Q

----------------------|--0--------------0----|----------------------|
-----------------0----|------------0---------|--2---------L----2----|
------------1---------|-------1--------------|------------1---------|
-------2--------------|----------------------|-------2--------------|
--2-------------------|-----------------L----|--1-------------------|
----------------------|----------------------|----------------------|



  Q    Q    Q    Q       Q    Q    Q    Q       Q    Q    Q    Q

--0--------------0----|----------------------|--2--------------2----|
------------2---------|-----------------0----|------------0---------|
-------1--------------|------------2---------|-------2--------------|
----------------------|-------1--------------|----------------------|
-----------------L----|--2-------------------|-----------------L----|
----------------------|----------------------|----------------------|



  Q    Q    Q    Q       Q    Q    Q    Q       Q    Q    Q    Q

----------------------|--2--------------0----|----------------------|
-----------------0----|------------0---------|----------------------|
------------2---------|-------2--------------|-----------------0----|
-------1--------------|----------------------|------------2---------|
--2-------------------|-----------------L----|-------2--------------|
----------------------|----------------------|--0-------------------|



  Q    Q    Q    Q       Q    Q    Q    Q       Q    Q    Q    Q

----------------------|--0--------------0----|--7--------------7----|
--0--------------0----|------------0---------|-------0--------------|
------------0---------|-------0--------------|------------0---------|
-------2--------------|----------------------|----------------------|
----------------------|----------------------|----------------------|
-----------------L----|--0-------------------|-----------------L----|



  Q    Q    Q    Q       Q    Q    Q    Q       Q    Q    Q    Q

--7--------------7----|------------7---------|--5--------------5----|
------------5---------|--5--------------5----|------------5---------|
-------5--------------|-------5--------------|-------5--------------|
----------------------|----------------------|----------------------|
--0-------------------|-----------------L----|--0-------------------|
----------------------|----------------------|----------------------|



  Q    Q    Q    Q       Q    Q    Q    Q       Q    Q    Q    Q

------------5---------|--3--------------3----|------------2---------|
--5--------------5----|------------0---------|--0--------------0----|
-------5--------------|-------0--------------|-------0--------------|
----------------------|----------------------|----------------------|
-----------------L----|----------------------|----------------------|
----------------------|--0-------------------|-----------------L----|



  Q    Q    Q    Q       Q    Q    Q    Q       Q    Q    Q    Q

--0--------------2----|------------3---------|--7--------------7----|
------------0---------|-------0--------------|------------5---------|
-------0--------------|--0--------------0----|-------5--------------|
----------------------|----------------------|----------------------|
----------------------|----------------------|--0-------------------|
--0-------------------|-----------------L----|----------------------|



  Q    Q    Q    Q       Q    Q    Q    Q       Q    Q    Q    Q

------------7---------|--5--------------5----|------------5---------|
--5--------------5----|------------5---------|--5--------------5----|
-------5--------------|-------5--------------|-------5--------------|
----------------------|----------------------|----------------------|
-----------------L----|--0-------------------|-----------------L----|
----------------------|----------------------|----------------------|



  Q    Q    Q    Q       Q    Q    Q    Q       Q    Q    Q    Q

--3--------------3----|------------2---------|--0--------------2----|
------------0---------|--0--------------0----|------------0---------|
-------0--------------|-------0--------------|-------0--------------|
----------------------|----------------------|----------------------|
----------------------|----------------------|----------------------|
--0-------------------|-----------------L----|--0-------------------|



  Q    Q    Q    Q       Q    Q    Q    Q       Q    Q    Q    Q

------------3---------|--2--------------2----|------------2---------|
-------0--------------|------------1---------|--1--------------1----|
--0--------------0----|-------2--------------|-------2--------------|
----------------------|--0-------------------|-----------------L----|
----------------------|----------------------|----------------------|
-----------------L----|----------------------|----------------------|



  Q    Q    Q    Q       Q    Q    Q    Q       Q    Q    Q    Q

--3--------------2----|------------2---------|----------------------|
------------1---------|-------1---------1----|----------------------|
-------2--------------|--2-------------------|-----------------0----|
--0-------------------|-----------------L----|------------2---------|
----------------------|----------------------|-------2--------------|
----------------------|----------------------|--0-------------------|



  Q    Q    Q    Q       Q    Q    Q    Q       Q    Q    Q    Q

----------------------|--0-------------------|-----------------0----|
--0--------------0----|-------0---------0----|----------------------|
------------0---------|------------0---------|--0---------0---------|
-------2--------------|----------------------|-------2---------2----|
----------------------|----------------------|----------------------|
----------------------|----------------------|----------------------|



  Q    Q    Q    Q       Q    Q    Q    Q       Q    Q    Q    Q

--2--------------2----|------------2---------|--3--------------2----|
------------1---------|--1--------------1----|------------1---------|
-------2--------------|-------2--------------|-------2--------------|
--0-------------------|-----------------L----|--0-------------------|
----------------------|----------------------|----------------------|
----------------------|----------------------|----------------------|



  Q    Q    Q    Q       Q    Q    Q    Q       Q    Q    Q    Q

------------2---------|----------------------|--0-------------------|
-------1---------1----|----------------------|-------0---------0----|
--2-------------------|-----------------0----|------------0---------|
-----------------L----|------------2---------|----------------------|
----------------------|-------2--------------|----------------------|
----------------------|--0-------------------|----------------------|



  Q    Q    Q    Q       Q
----------------------|-------|-------|-------|-------||
----------------------|-------|-------|-------|-------||
--0---------0---------|-------|-------|-------|-------||
-------2---------2----|-------|-------|-------|-------||
----------------------|-------|-------|-------|-------||
----------------------|--0----|-------|-------|-------||

TOP cifras de Ataraxia

  1. Il Signore Delle Botole
  2. Bleumarine
  3. Le Ore Rosa Di Mazenderan
  4. Li Frere Li Mestre Du Temple
  5. Scarlet Leaves

Pela Web