Cifras Web
Bethoven

9ª Sinfonia

Bethoven

6 acessos


E|-------------------------------------------------------|
B|--0--0--1--3--3--1--0--------------0--0----------------|
G|-----------------------2--0--0--2--------2---2---------|
D|-------------------------------------------------------|
A|-------------------------------------------------------|
E|-------------------------------------------------------|



E|-------------------------------------------------------|
B|--0--0--1--3--3--1--0--------------0-------------------|
G|-----------------------2--0--0--2-----2---0--0---------|
D|-------------------------------------------------------|
A|-------------------------------------------------------|
E|-------------------------------------------------------|



E|-------------------------------------------------------|
B|--------0--------0--1--0--------0--1--0----------------|
G|--2--2-----0--2-----------0--2-----------2--0--2-------|
D|--------------------------------------------------0----|
A|-------------------------------------------------------|
E|-------------------------------------------------------|


E|-------------------------------------------------------|
B|--0--0--1--3--3--1--0--------------0-------------------|
G|-----------------------2--0--0--2-----2---0--0---------|
D|-------------------------------------------------------|
A|-------------------------------------------------------|
E|-------------------------------------------------------|

TOP cifras de Bethoven

  1. Por Elise
  2. 5ª Sinfonia
  3. 9ª Symphony
  4. Canción de La Alegría
  5. Sonate Pathetique
  6. 9ª Sinfonia

Pela Web