Cifras Web
Bethoven

9ª Symphony

Bethoven

8 acessos


  C       G         C          G C
E|-0-0-1-3-3-1-0------------0-0------------------------
B|----------------3--1-1-3------3-3--------------------
G|-----------------------------------------------------
D|-----------------------------------------------------
A|-----------------------------------------------------
E|-----------------------------------------------------



   C       G         C          G  C
E|-0-0-1-3-3-1-0------------0-0------------------------
B|----------------3--1-1-3------3--1-------------------
G|-----------------------------------------------------
D|-----------------------------------------------------
A|-----------------------------------------------------
E|-----------------------------------------------------



   G C     G     C    G       C     F       G
E|---0-----0--1--0--------0-1-0------------------------
B|-3---1-3----------1--3---------3--1--3---------------
G|------------------------------------------0----------
D|-----------------------------------------------------
A|-----------------------------------------------------
E|-----------------------------------------------------


(primeira parte)

TOP cifras de Bethoven

  1. Por Elise
  2. 5ª Sinfonia
  3. 9ª Symphony
  4. Canción de La Alegría
  5. Sonate Pathetique
  6. 9ª Sinfonia

Pela Web