Cifras Web
Chrono Cross

Another Guldove

Chrono Cross

36 acessos


E |-------------------------------------------------|
B |-------------0------0----------------0------0----|
G |----------2------2-----0----------2------2-----0-|
D |-------0-----------------------0-----------------|
A |-------------------------------------------------|
E |---3-----------------------3---------------------|



E |-------------------------------------------------|
B |-------------0------0----------------0------0----|
G |----------2------2-----0----------2------2-----0-|
D |-------1-----------------------1-----------------|
A |-------------------------------------------------|
E |---3-----------------------3---------------------|



E |-------------------------------------------------|
B |-------------0------0----------------0------0----|
G |----------2------2-----0----------2------2-----0-|
D |-------2-----------------------2-----------------|
A |-------------------------------------------------|
E |---3-----------------------3---------------------|



E |-------------------------------------------------|
B |-------------0------0----------------0---1--3----|
G |----------2------2-----0----------2------------0-|
D |-------3-----------------------3-----------------|
A |-------------------------------------------------|
E |---3-----------------------3---------------------|



E |--------------------0-----------------------0----|
B |----------1--3---1-----1----------1--3---1-----1-|
G |-------0-----------------------0-----------------|
D |-------------------------------------------------|
A |-------------------------------------------------|
E |---3-----------------------3---------------------|



E |--------------------3-----------------------3----|
B |----------1--3---1-----1----------1--3---1-----1-|
G |-------0-----------------------0-----------------|
D |---1-----------------------1---------------------|
A |-------------------------------------------------|
E |-------------------------------------------------|



E |-------------2---------2-------------2------3-----0-|
B |----------0---------0-------------0------0-----0----|
G |-------0---------0-------------0--------------------|
D |---2-----------------------0------------------------|
A |----------------------------------------------------|
E |----------------------------------------------------|



E |---------------0-----3--------3--2-|
B |--------3------------------3-----3-|
G |-----0------0-----0-----2--------2-|
D |--2------------------0-------------|
A |-----------------------------------|
E |-----------------------------------|


(melodia)


E |---------------------------------------------------|
B |--3---0---3--1-------1--0----------------------0-3-|
G |-----------------2----------0---2----------0-2-----|
D |-----------------------------------0---2-4---------|
A |---------------------------------------------------|
E |---------------------------------------------------|



E |-------------------------------------------------------------------|
B |--0---3--4---3---1--0-------0--1----1--0--1-0----------------------|
G |------------------------2---------------------2-0-----0--2---0-----|
D |--------------------------------------------------4--------------0-|
A |-------------------------------------------------------------------|
E |-------------------------------------------------------------------|


E |---------------------------------------------------------------|
B |---3-----1-----0-----------------------------------------------|
G |-----------------2-0-----2---0-----------0-----2-0-----------0-|
D |-----------------------------------2--4------------4-----2-4---|
A |---------------------------------------------------------------|
E |---------------------------------------------------------------|

TOP cifras de Chrono Cross

  1. Dream Of The Shore Near Another World
  2. Time Scar
  3. Another Guldove
  4. Main Title
  5. A Narrow Space Between Dimensions
  6. Leaving The Body
  7. Magical Dreamers
  8. Bend Of Time
  9. Lost Before Light
  10. Radical Dreamers

Pela Web